Song name
# A B C D E F G H I J K L M N O P Q R S T U V W X Y Z

Peggy Sue - The Sea The Sea tab

This is such an amazing song and as soon as i had heard it, i had to work it out.

(You Take My Bones, and you build a house of your own)
E|-----|-----|
B|--1--|--1--|
G|--2--|-----|
D|--2--|--2--|
A|-----|--3--|
E|-----|-----|

(Instrumental)
E|-----|-----|-----|
B|--1--|--1--|-----|
G|--2--|-----|-----|
D|--2--|--2--|--2--|
A|-----|--3--|--2--|
E|-----|-----|-----|

Bridge (Slow Part)
E|----0----------|----------------|----3-0--------------|
B|--1--1----1-1--|--1-1----1-1-1--|--1-----1-1-1--1-1---|
G|--2---2---2-2--|-----0----------|--2-----2-2----------|
D|--2----2--2-2--|--2---2--2-2-2--|--2-----2-2-2--2-2-2-|
A|---------------|--3------3-3-3--|------------3--3-3-2-|
E|---------------|----------------|---------------------|

(I Build you a body from this beach...)
E|--1--|-----|-----|-----|                      |-----|
B|--3--|--1--|-----|-----|                      |--2--|
G|--2--|--2--|--2--|--2--|                      |--2--|
D|-----|--2--|-----|--2--|                      |--2--|
A|-----|-----|--2--|--2--|                      |-----|
E|-----|-----|-----|-----|(On the last time add)|-----|

Then Repeat when neccesary. Ohh and in the last part when it goes;
'The sea... the sea flows for me, there are serpents....'
Just use the Instrumental Part and strum really hard when neccesary.

Good luck :D
Tap to rate this tab
# A B C D E F G H I J K L M N O P Q R S T U V W X Y Z