Song name
# A B C D E F G H I J K L M N O P Q R S T U V W X Y Z

Peixe Aviao - A Espera E Um Arame tab

"A espera e um arame"
peixe:aviao
http://www.myspace.com/peixeaviao

[0:00 - 1:03] ; [1:08 - 1:40] ; [1:49 - 2:51]

E|---------------------------------------------|
B|-------------------------------1-------------|
G|------------------------2------0------2------|
D|------2----------0------1------2------2------|
A|------2----------2------2------3------0------|
E|------0h3p0------3---------------------------|

in the beggining of the song and certain parts you don't hammer on and pulloff. just 
to the song and figure it out.


[1:04 - 1:07]

E|------7--------------------------------------|
B|------8--------------------------------------|
G|------9------9-------5-----------------------|
D|------9------10------7-----------------------|
A|-------------10------7-----------------------|
E|-------------8-------5-----------------------|


[1:40 - 1:48]

E|------7---------------------7----------------|
B|------8---------------------7----------------|
G|------9------9-------5------7----------------|
D|------9------10------7------9----------------|
A|-------------10------7-----------------------|
E|-------------8-------5-----------------------|


[2:52 - 3:24]

E|------7--------------------------------------|
B|------8------7------8------------------------|
G|------9------8------9------------------------|
D|------9------9------10-----------------------|
A|-------------9------10-----------------------|
E|---------------------------------------------|
Tap to rate this tab
 
# A B C D E F G H I J K L M N O P Q R S T U V W X Y Z