Song name
# A B C D E F G H I J K L M N O P Q R S T U V W X Y Z

Pelican - Aurora Borealis tab

Aurora Borealis by Pelican off the album The Fire in our Throats will Beckon The Thaw

Tabbed by s0mbr3

A relatively simple song.
The tab starts after the weird sliding back and forth part when the drums kick in. 
This is my first tab so please let me know if there are mistakes
via the PM function on the -UG- Forums.
Enjoy!

Tune down 1 whole step. DGCFAD (low to high)

Riff 1
------
     |--------3--------|         
     H        H        H         
D||-----------------------------|
A||--9--------9--------9--------|
F||-----------------------------|
C||-----------------------------|
G||-----------------------------|
D||-----------------------------|


        |--------3--------|         
  Q     H        H        H         
-----------------------------------|
--8s----7--------7--------7--------|
-----------------------------------|
-----------------------------------|
-----------------------------------|
-----------------------------------|


  |--------3--------|            |---------3---------|         
  H        H        H            H         H         H         
-----------------------------|--------------------------------|
--9--------9--------9--------|--12--------12--------12--------|
-----------------------------|--------------------------------|
-----------------------------|--------------------------------|
-----------------------------|--------------------------------|
-----------------------------|--------------------------------|




Riff 2
------

  Q     Q    Q     E  E     E  Q     Q    Q.      
-------------------------|-----------------------|
--9----12----9----12--9--|--9--9----12----9------|
-------------------------|-----------------------|
-------------------------|-----------------------|
-------------------------|-----------------------|
-------------------------|-----------------------|


  Q    Q    Q    E  E     Q     Q     
--9---------9----------|--9s----7----|
-------9---------9--9--|-------------|
-----------------------|-------------|
-----------------------|-------------|
-----------------------|-------------|
-----------------------|-------------|


Riff 3
------
   Q     Q     E   E   E   E      Q     Q     Q     Q     
--------12--------12----------|--------12----------16----|
--12----------12------12--12--|--12----------12----------|
------------------------------|--------------------------|
------------------------------|--------------------------|
------------------------------|--------------------------|
------------------------------|--------------------------|


   E   E   E   E   Q     Q     
------16----------------16----|
--12------12--12--12----------|
------------------------------|
------------------------------|
------------------------------|
------------------------------|


Riff 4
------

   Q    E   E  Q    Q     Q      
|------------------------------||
|-------------------9----12----||
|--8----8h--9--9---------------||
|------------------------------||
|------------------------------||
|------------------------------||



Order:
-------
Riff 1 x4
Riff 2 x4
Riff 1 x2
Riff 3 x2
Riff 2 x2
Riff 3 x2
Riff 4 x8
Riff 1 x4
Riff 2 x2
Riff 3 x2
Riff 4 x7



Duration Legend
---------------
W - whole
H - half
Q - quarter
E - 8th
S - 16th
T - 32nd
X - 64th
. - note dotted
|-n-|  - n-tuplets


Tablature Legend
----------------
L - tied note
x - dead note
g - grace note
(n) - ghost note
> - accentuded note
NH - natural harmonic
AH - artificial harmonic
TH - tapped harmonic
SH - semi harmonic
PH - pitch harmonic
h - hammer on
p - pull off
b - bend
br - bendRelease
pb - preBend
pbr - preBendRelease
brb - bendReleaseBend
\n/ - tremolo bar dip
\n - tremolo bar dive
-/n - tremolo bar Release up
/n\ - tremolo bar inverted dip
/n - tremolo bar return
-\n - tremolo bar Release down
S - shift slide
s - legato slide
/ -  slide into from below or out of upwards
\ -  slide into from above or out of downwards
~ - vibrato
W - wide vibrato
tr - trill
TP - tremolo picking
T - tapping
S - slap
P - pop
< - fade in
^ - brush up
v - brush down
Tap to rate this tab
# A B C D E F G H I J K L M N O P Q R S T U V W X Y Z