Song name
# A B C D E F G H I J K L M N O P Q R S T U V W X Y Z

Pelican - Dead Between The Walls tab

note: this is my first tab and i think that its fairly accurate. if you find
any errors, feel free to make a note of that. you can figure out the order
in which you play each part and how many times, et caetera, cause i really
dont feel like posting it.


Pelican - Dead Between The Walls - City of Echoes
Guitar Tab
Tuning - B Standard (Six String)


Riff 1 (part 1)
----------------------------------------------------------------|
----------------------------------------------------------------|
----------------------------------------------------------------|
-5-5---5/-6-6--6\-3-3--3-2-2-2----------------------------------|
-x-x---x--x-x--x--x-x--x-x-x-x----------------------------------|
-3-3---3/-4-4--4\-1-1--1-0-0-0----------------------------------|

Riff 1 Part 2

----------------------------------------------------------------|
----------------------------------------------------------------|
-----------------------------------(Segue Part)-----------------|
-5-5--5/-8-8--8\-3-3--3-2-2-2------(-3-2)-----------------------|
-x-x--x--x-x--x--x-x--x-x-x-x------(-x-x)-----------------------|
-3-3--3/-6-6--6\-1-1--1-0-0-0------(-1-0)-----------------------|

Riff 2
----------------------------------------------------------------|
----------------------------------------------------------------|
----------------------------------------------------------------|
--------2---------------------------2---------------------------|
--------2---------------------------2---------------------------|
---0-1--0-0-000-0-3-0-4-0-1-0-1-0-1-0--0-0-000-0-3-0-4-0-6-0-1--|
        . . ... .   .   .              . . ... .   .   .

Riff 3 Part 1 (Same rhythm as Riff 1)
----------------------------------------------------------------|
----------------------------------------------------------------|
-12-12--12/-13-13--13\10-10---10-9-9-9--------------------------|
-x--x---x---x--x---x---x--x----x-x-x-x--------------------------|
-10-10--10/-11-11--11\-8--8----8-7-7-7--------------------------|
----------------------------------------------------------------|

Riff 3 Part 2
----------------------------------------------------------------|
----------------------------------------------------------------|
-12-12--12/-15-15--15\10-10---10-9-9-9--------------------------|
-x--x---x---x--x---x---x--x----x-x-x-x--------------------------|
-10-10--10/-13-13--13\-8--8----8-7-7-7--------------------------|
----------------------------------------------------------------|

Riff 4a
----------------------------------------------------------------|
----------------------------------------------------------------|
12-12--12-13-12-13-12-10--12-13-12-9--12/13-12\9-12/13-13/15----|
x--x---x--x---x--x--x--x--x--x--x--x--x--x--x--x-x--x--x--x-----|
10-10--10-11--10/11-10\8--10/11-10\7--10/11-10\7-10/11-11/13----|
-----00-----00----------00----------00--------------------------|
     ..     ..          ..          ..

----------------------------------------------------------------|
----------------------------------------------------------------|
---12/13-12\9--12/13-12/15-13/16--------------------------------|
---x--x--x--x--x--x--x--x--x--x---------------------------------|
---10/11-10\7--10/11-10/13-11/14--------------------------------|
-00----------00-----0-----0-------------------------------------|
 ..          ..     .     .

Riff 4b
-----------------------------------------------------------------|
1212-1213--1213-1210-1213-129--1213-126-1213-13/15---------------|
x-x--x-x---x-x--x-x--x-x--x-x--x-x--x-x-x-x--x--x----------------|
9-9--9-10--9/10-9\7--9/10-9\6--9/10-9\6-9/10-10/12---------------|
-----------------------------------------------------------------|
---00----00--------00--------00----------------------------------|
   ..    ..        ..        ..

-----------------------------------------------------------------|
---1213-1210-1213-1215-13/16-------------------------------------|
---x-x--x-x--x-x--x-x--x--x--------------------------------------|
---9/10-9\6--9/10-9/12-10/13-------------------------------------|
-----------------------------------------------------------------|
-00--------00----0----0------------------------------------------|
 ..        ..    .    .

Riff 4c
-----------------------------------------------------------------|
1515--1516--15/16-15\13--15/16-15\12-15/16-15\1215/16-16/18------|
x-x---x-x---x--x--x--x---x--x--x--x--x--x--x--x-x--x--x--x-------|
1212--1213--12/13-12\10--12/13-12\9--12/13-12\9-12/13-13/15------|
-----------------------------------------------------------------|
----00----00-----------00----------00----------------------------|
   ..    ..            ..          ..

-----------------------------------------------------------------|
---15/16-15/12-15/16-15/18-16/19---------------------------------|
---x--x--x--x--x--x--x--x--x--x----------------------------------|
---12/13-12\9--12/13-12/15-13/16---------------------------------|
-----------------------------------------------------------------|
-00----------00-----0-----0--------------------------------------|
 ..          ..     .     .

Riff 5a
-----------------------------------------------------------------|
-----------------------------------------------------------------|
-----------------------------------------------------------------|
-----------------------------------------------------------------|
-----------------------------------------------------------------|
-0-0-3h4-3p0-0-0-3h4-3p0-3h4-4h6-0-0-3h4-3p0-0-0-1h4-0-3h4-0-3h6-|

Riff 5b
-----------------------------------------------------------------|
-----------------------------------------------------------------|
-----------------------------------------------------------------|
-----------------------------------------------------------------|
-----------------------------------------------------------------|
-0-0-6h7-6p0-0-0-6h7-6p0-6h7-6p3-0-0-6h7-6p0-0-0-4h7-0-6h7-0-6h9-|

Riff 6a
-------------------------------------------------------------------|
-------------------------------------------------------------------|
12-12--12/13-13--12/13-121010\9-9--4/5-4--9-9/101012---------------|
x--x---x--x--x---x--x--x--x-x-x-x--x-x-x--x-x-x-x-x----------------|
10-10--10/11-11--10/11-10\8-8\7-7--2/3-2--7-7/8-8/10---------------|
-----00--------00-----------------0-----00-------------------------|
     ..        ..                 .     ..

-----------------------------------------------------------------|
-----------------------------------------------------------------|
12/13-13~--13/15-15~-15-15\13-13\12-12\1010-9/109-(9)------------|
x--x--x----x--x--x---x--x--x--x--x--x--x-x--x-x-x-(x)------------|
10/11-11~--11/13-13~-13-13\11-11\10-10\8-8--7/8-7-(7)~~~~--------|
---------00---------0---------------------00---------------------|
         ..         .                     ..

Riff 6b
-------------------------------------------------------------------|
1212-1213-13--1213-1210109-9--5/6/5--9-9/101012--------------------|
x-x--x-x--x---x-x--x-x-x-x-x--x-x-x--x-x-x-x-x---------------------|
9-9--9/10-10--9/10-9\7-7\6-6--2/3-2--6-6/7-7/9---------------------|
-------------------------------------------------------------------|
---00-------00--------------00------0------------------------------|
   ..       ..              ..      .

-----------------------------------------------------------------|
1213-13~--13/15-15~-15-15\13-13\12121010-910-9-(9)~~~~-----------|
x-x--x----x--x--x---x--x--x--x--x-x-x-x--x-x-x-(x)---------------|
9/10-10~--10/12-12~-12-12\10-10\9-9\7-7--6/7-6-(6)~~~~-----------|
-----------------------------------------------------------------|
--------00---------0-------------------00------------------------|
        ..         .                   ..

Riff 7 (Light Part) (I'm not sure about these next few parts)
-0-0-4p0-3p0---0----0-(x2)-3-3-6p0-4p0---0----0--4-4-7p0-6p0---0----0-|
-------------5----5--------------------5----5----------------5----5---|
----------------------------------------------------------------------|
----------------------------------------------------------------------|
----------------------------------------------------------------------|
----------------------------------------------------------------------|

Riff 8 (Light Part) (This is the lead, I don't know the rhythm part)
-----7-----7-----7-----7----7---7-x2----6----6----6----6---6--6----6~~-|
-/10----10----10----10----10--10------9----9----9----9----9--9-x2--9~~-|
-----------------------------------------------------------------------|
---------------------------------------(Only play last chord for-------|
-----------------------------------------the last time)----------------|
-----------------------------------------------------------------------|

Riff 9a (Lead Intro)
--6-----------6----------6----------/9-9-9-9-10-10-10-10---------|
--9b~~--------9~~--------9~~-------------------------------------|
---(Bend back and Forth)-----------------------------------------|
-----------------------------------------------------------------|
-----------------------------------------------------------------|
-----------------------------------------------------------------|

Riff 9a (Rhythm Part)
-----------------------------------------------------------------|
-----------------------------------------------------------------|
-----------------------------------------------------------------|
--6--6-6/7-6--6-6-6\5-2--6--6-6/7-6--9-9-9-911-2-----------------|
--6--6-6/7-6--6-6-6\5-2--6--6-6/7-6--9-9-9-911-2-----------------|
--4--4-4/5-4--4-4-4\3-0--4--4-4/5-4--7-7-7-7/9-0-----------------|

Riff 9b
-----------------------------------------------------------------|
-----------------------------------------------------------------|
-----------------------------------------------------------------|
--6--6-6/7-6--6-6-6\5-2--6--6-6/7-6--9-9-9-911-2-----------------|
--6--6-6/7-6--6-6-6\5-2--6--6-6/7-6--9-9-9-911-2-----------------|
--4--4-4/5-4--4-4-4\3-0--4--4-4/5-4--7-7-7-7/9-0-----------------|

Riff 9c (Lead Outro)
------------------11-11-11-11------------------12-12-12-12-------|
-9h10p9-12-9h10p9-------------9h10p9-12-9h10p9-------------------|
-----------------------------------------------------------------|
-----------------------------------------------------------------|
-----------------------------------------------------------------|
-----------------------------------------------------------------|

Riff 9c (Lead Fill) (The fill probably isnt exact but it should still be close)
--/11b~~~~--12~~~~~~~----15--15--15--15--16--16--16--16----------|
------------15/b\~~~~----18b-18b-18b-18b-19b-19b-19b-19b---------|
-----------------------------------------------------------------|
-----------------------------------------------------------------|
-----------------------------------------------------------------|
-----------------------------------------------------------------|

Riff 9c (More Lead Fill)
---------------11---12--14---------------------------------------|
-----12---12------------------11---10---12---11--10--------------|
-/14---14---14---14---14--/13---13---13---13---13----------------|
-----------------------------------------------------------------|
-----------------------------------------------------------------|
-----------------------------------------------------------------|

Riff 9c (Rhythm and Sometimes Lead)
-----------------------------------------------------------------|
-----------------------------------------------------------------|
-----------------------------------------------------------------|
--6--6-6/7-6--6-6-6\5-2--6--6-6/7-6--9-9-9-911-2(End Note)6~~~~--|
--6--6-6/7-6--6-6-6\5-2--6--6-6/7-6--9-9-9-911-2----------6~~~~--|
--4--4-4/5-4--4-4-4\3-0--4--4-4/5-4--7-7-7-7/9-0----------4~~~~--|
and thats it.
Tap to rate this tab
# A B C D E F G H I J K L M N O P Q R S T U V W X Y Z