Song name
# A B C D E F G H I J K L M N O P Q R S T U V W X Y Z

Pelican - The Creeper tab

This is the first song I've attempted to learn by ear, as well 
as my first tab. The Pelican tabs are so empty, I thought something 
should be put up!

If something is wrong or can be improved please leave a comment, 
I'd be happy to see/hear what I did wrong.

-----------------------------------------------------------------
Pelican - The Creeper
-----------------------------------------------------------------
Tabbed by: coltwanger
Tuning: BEADF#B

(1:00)
B |---------------------------------------------------------------|
F#|---------------------------------------------------------------|
D |---------------------------------------------------------------|
A |---5-5-5--2----------------------------------------------------|
E |---5-5-5--2----------------------------------------------------|
B |---3-3-3--0----------------------------------------------------|


B |---------------------------------------------------------------|
F#|---------------------------------------------------------------|
D |---------------------------------------------------------------|
A |-------7-5\-------------------7-5\-----------------------------|
E |---/55--5-----------------/55--5-------------------------------|
B |-----------0-00-0-00-0-------------0-00-0-00-0-----------------|
              - -- - -- -             - -- - -- -

Riff A 
B |---------------------------------------------------------------|
F#|---------------------------------------------------------------|
D |---------------------------------------------------------------|
A |-------7-5\-------------------7-5\-----------------------------|
E |---/55--5-----------------/55--5-------------------------------|
B |-----------0-00-0-00-0-------------0-00-0-00-0-----------------|
              - -- - -- -             - -- - -- -
 
				       *Not sure here*
B |---------------------------------------------------------------|
F#|-----------------------------------------2---------------------|
D |---------------------------------------4--4--------------------|
A |------5-4\----------------444---2----4-----4-------------------|
E |---/55-5---0-00-0-00-0--------2----2--------2------------------|
B |---------------------------------------------------------------|x6
              - -- - -- -
  
Riff B  Heavy Dist
B |---------------------------------------------------------------|
F#|---------------------------------------------------------------|
D |---------------------------------------------------------------|
A |---5--5--5/7-7-7/10-10-10\9-7-7--999\7-22----------------------|
E |---5--5--5/7-7-7/10-10-10\9-7-7--999\7-22----------------------|
B |---3--3--3/5-5-5/8--8--8-\7-7-7--777\5-00----------------------|x2

B |---------------------------------------------------------------|
F#|---------------------------------------------------------------|
D |---------------------------------------------------------------|
A |---12~-12~--5/7-7-7/10-10-10\9-7-7-999\7-22--------------------|
E |---12~-12~--5/7-7-7/10-10-10\9-7-7-999\7-22--------------------|
B |---10~-10~--3/5-5-5/8--8--8-\7-7-7-777\5-00--------------------|x2

Riff A x2
Riff B x2

Riff C
B |---------------------------------------------------------------|
F#|---------------------------------------------------------------|
D |---------------------------------------------------------------|
A |---12/14-14-14\9--9-9--9/12-12-12\7-7-7------------------------|
E |---12/14-14-14\9--9-9--9/12-12-12\7-7-7------------------------|
B |---10/12-12-12\7--7-7--7/10-10-10\5-5-5------------------------|

Listen to the song for when the fills come up and play the following:

Riff C - Fill A
B |---------------------------------------------------------------|
F#|---------------------------------------------------------------|
D |---------------------------------------------------------------|
A |-----------9~---------9~---------------------------------------|
E |---------------------------------------------------------------|
B |--7--7--7-----7--7--7------------------------------------------|

Riff C - Fill B
B |---------------------------------------------------------------|
F#|---------------------------------------------------------------|
D |---------------------------------------------------------------|
A |----------9~---------9~---------9~---------9~------------------|
E |---------------------------------------------------------------|
B |--7--7--7----7--7--7----7--7--7----7--7--7---------------------|


Riff C - Fill C
B |---------------------------------------------------------------|
F#|---------------------------------------------------------------|
D |---------------------------------------------------------------|
A |----------9~---------9~---------9~--------9~-------------------|
E |---------------------------------------------------------------|
B |--5--5--5----5--5--5----0--0--0---0--0--0----------------------|

Riff C - Fill D
B |---------------------------------------------------------------|
F#|---------------------------------------------------------------|
D |---------------------------------------------------------------|
A |-------------9~-----------9~------------9~---------------------|
E |---------------------------------------------------------------|
B |--10--10--10----10--10--10---12--12--12------------------------|

Riff B x2

Outro
B |---------------------------------------------------------------|
F#|---------------------------------------------------------------|
D |---------------------------------------------------------------|
A |---------------------------------------------------------------|
E |--5h77-7p5-----------4h55-5p4----------------------------------|
B |-----------7~-7-7-------------5~-5-5---------------------------|

| -  palm mute
| /  slide up
| \  slide down
| h  hammer-on
| p  pull-off
| ~  vibrato
| +  harmonic
| x  Mute note
Tap to rate this tab
 
# A B C D E F G H I J K L M N O P Q R S T U V W X Y Z