Song name
# A B C D E F G H I J K L M N O P Q R S T U V W X Y Z

Pelle Miljoona - Moottori Tie On Kuuma tab

Pelle miljoona- Moottori tie on kuuma tabs   By:KitaraNiko69

Intro:1
-------------------------------------------------- X4         ]
--------------------------------------------------            ]
--------------------------------------------------            ]
--------------------------------------------------            ]
----7-----8-----7------5----7-----8------7----5---            ]
5-5---5-5---5-5----3-3---5-5---5-5---5-5---3-3----            ] X 2
Intro:2                                                       ]All intro!
--------------------             Intro:3                      ]
--------------------             ---------------------        ]
--------------------             ---------------------        ]
----7----8----7----5             ---------------------        ]
5-5--5-5--5-5--3-3-- X3          ---11---12---11---9--        ]
--------------------             9-9--9-9--9-9--7-7---
                                       X2


Chorus: Am------------------
----------------------------------------------------------------
----------------------------------------------------------------
----------------------------------------------------------------
----------------------------------------------------------------
3-3-3--5-5-5--7--3-3-3--5-5-5--7---3-3-3--5-5-5--7---3-3-3--5-5-
1-1-1--3-3-3--5--1-1-1--3-3-3--5---1-1-1--3-3-3--5---1-1-1--3-3-
---------------------------------------------------------
12~-10~-12~-10-12~-10~-12~-10~-14 15b (17)

Then comes intros again and then chorus!!!!


I dunno solo :( !

~:vibrato!





Tap to rate this tab
# A B C D E F G H I J K L M N O P Q R S T U V W X Y Z