Song name
# A B C D E F G H I J K L M N O P Q R S T U V W X Y Z

Pellumb Hajdari - Qingji I Vogel tab

                               Qingji i vogel


E||-------7----7----7----7----7-----7------7-----7----8---7---8----7---8------|
B||---------------------------------------------------------------------------|
G||---------------------------------------------------------------------------|
D||---------------------------------------------------------------------------|
A||---------------------------------------------------------------------------|
E||---------------------------------------------------------------------------|

E||-------5----5----5----5----5-----5------5-----5-----7---5----7----5---7----|
B||---------------------------------------------------------------------------|
G||---------------------------------------------------------------------------|
D||---------------------------------------------------------------------------|
A||---------------------------------------------------------------------------|
E||---------------------------------------------------------------------------|

E||--------------------------5----------------------8-----7---8-----7---8----|
B||-------8----8----8----8--------8-----7------5-----------------------------|
G||--------------------------------------------------------------------------|
D||--------------------------------------------------------------------------|
A||--------------------------------------------------------------------------|
E||--------------------------------------------------------------------------|

E||--------------5-----8-----7----5------------------------------------------|
B||---7------8-------------------------8----7----8----7----8----7----8-------|
G||--------------------------------------------------------------------------|
D||--------------------------------------------------------------------------|
A||--------------------------------------------------------------------------|
E||--------------------------------------------------------------------------|
Tap to rate this tab
# A B C D E F G H I J K L M N O P Q R S T U V W X Y Z