Guitaretab - guitar tabs
Song name
# A B C D E F G H I J K L M N O P Q R S T U V W X Y Z

Pencey Prep - Secret Goldfish tab

PENCEY PREP    the secret goldfish
guitar one
intro:
E|-------------------|
B|-----7-------7---5-|
G|-------7-------7---|
D|-5-5-----5-5-------|
A|-------------------|
E|-------------------|

E|-5-3-2---5-3-2-3r2---|
B|-------3-----------3-|
G|---------------------|
D|---------------------|
A|---------------------|
E|---------------------|

verse1:
E|-------------------------|
B|---7-----7-----7-----7---|
G|-----7-----7-----7-----7-|
D|-5-----5-----5-----5-----|
A|-------------------------|
E|-------------------------|


yeah so this part is something that Emma Thompson trabbed for me to add to this to 
it a little more:

:D

-------------------------------------------------------------------------------
THE SECRET GOLDFISH  Pencey Prep
-------------------------------------------------------------------------------
Tabbed by: Frank
Email: countessdracula@hotmail.co.uk

Tuning: standard

Guitar 1

e|-----2--------2-------------2--------2----------------------------------|
B|-------3--------3--/5---------3--------3--/5----------------------------|
G|-0-0------0-0-----------0-0------0-0------------7777777777777777--------|
D|------------------------------------------------5555555555555555--------|
A|------------------------------------------------5555555555555555--------|
E|------------------------------------------------------------------------|
pm                                                ****************

Guitar 2

e|--------------------------------------------------3-----3-----3----3----|
B|----------------------------------------------------2-----2-----2----2--|
G|------------------------------------------------2-----2-----2-----2-----|
D|------------------------------------------------------------------------|
A|------------------------------------------------------------------------|
E|------------------------------------------------------------------------|


Guitar 1

e|-----2--------2-------------2--------2----------------------------------|
B|-------3--------3--/5---------3--------3--/5----------------------------|
G|-0-0------0-0-----------0-0------0-0------------7777777777777777--------|
D|------------------------------------------------5555555555555555--------|
A|------------------------------------------------5555555555555555--------|
E|------------------------------------------------------------------------|
pm                                                ****************

Guitar 2

e|----3-------------------------------------------------------------------|
B|------2(x12)-----------------------------------------------------------|
G|--2---------------------------------------------------------------------|
D|------------------------------------------------------------------------|
A|------------------------------------------------------------------------|
E|------------------------------------------------------------------------|





Guitar 1

e|--5-3-2-----3/5-3-2-2h3p2-----3/5-3-2----3/5-3-2-2h3p2------------------|
B|--------3-----------------3-----------3----------------3--/5------------|
G|------------------------------------------------------------------------|
D|------------------------------------------------------------------------|
A|------------------------------------------------------------------------|
E|------------------------------------------------------------------------|


Guitar 2

e|-2222---------|
B|-3333-3333----|
G|-2222-0000---| (x4)
D|------2222----|
A|------2222----|
E|--------------|


Guitar 1

e|-----2----------2-------------2--------2------------------------------------|
B|---------3--------3--/5---------3--------3--/5------------------------------|
G|-0-0--------0-0-----------0-0------0-0--------------------------------------|
D|----------------------------------------------------------------------------|
A|----------------------------------------------------------------------------|
E|----------------------------------------------------------------------------|


Guitar 2

e|---3----------------------------------------------------------------------|
B|-----2(x8)---------------------------------------------------------------|
G|-2------------------------------------------------------------------------|
D|--------------------------------------------------------------------------|
A|--------------------------------------------------------------------------|
E|--------------------------------------------------------------------------|


Guitar 1

e|---------------------------------------------------------------------------|
B|---------------------------------------------------------------------------|
G|-7777777777777777-4444444444444444-----------------------------------------|
D|-7777777777777777-4444444444444444-5555555555555555-5----------------------|
A|-5555555555555555-2222222222222222-5555555555555555-5----------------------|
E|-----------------------------------3333333333333333-3----------------------|
Pm **************** **************** ****************

Guitar 2

e|---3-----------3----------3---------3-------------------------------------|
B|-----2(x4)------2(x4)-----3-(x4)--3-------------------------------------|
G|-2-----------0----------0-----------0-------------------------------------|
D|--------------------------------------------------------------------------|
A|--------------------------------------------------------------------------|
E|--------------------------------------------------------------------------|

Guitar 2 (rest)

e|------------------|
B|------------------|
G|------------------|
D|-55-44-22-00------|
A|------------------|
E|------------------|
Pm ** ** ** **


Guitar 1

e|---------------------------------------------------------------------------|
B|---------------------------------------------------------------------------|
G|-7777777777777777-4444444444444444-----------------------------------------|
D|-7777777777777777-4444444444444444-5555555555555555-55555555---------------|
A|-5555555555555555-2222222222222222-5555555555555555-55555555---------------|
E|-----------------------------------3333333333333333-33333333---------------|
Pm **************** **************** **************** ********

Guitar 2

e|---------------------------------------------------------------------------|
B|---------------------------------------------------------------------------|
G|---------------------------------------------------------------------------|
D|-55-44-55-44-55-44-22-00-(x3)---00-22-44-55-77-55-44-22--------------------|
A|---------------------------------------------------------------------------|
E|---------------------------------------------------------------------------|


Guitar 1

e|----------------------------------------------------------------------------|
B|----------------------------------------------------------------------------|
G|-7777777777777777-4444444444444444------------------------------------------|
D|-7777777777777777-4444444444444444-5555555555555555-55555555----------------|
A|-5555555555555555-2222222222222222-5555555555555555-55555555----------------|
E|-----------------------------------3333333333333333-33333333----------------|
Pm ** **** ** ****  ** **** ** ****  ** **** ** ****

Guitar 2

e|---3-----------3----------3---------3-------------------------------------|
B|-----2(x4)------2(x4)-----3-(x4)--3-------------------------------------|
G|-2-----------0----------0-----------0-------------------------------------|
D|--------------------------------------------------------------------------|
A|--------------------------------------------------------------------------|
E|--------------------------------------------------------------------------|



Guitar 1

e|---------------------------------------------------------------------------|
B|---------------------------------------------------------------------------|
G|--7-----7-----7\--4-----4-----4\-------------------------------------------|
D|-----7-----7---------4-----4------5-----5-----5----5-----5--55-44-22-00----|
A|-------------------------------------5-----5----------5--------------------|
E|---------------------------------------------------------------------------|


Guitar 2

e|---------------------------------------------------------------------------|
B|---------------------------------------------------------------------------|
G|---------------------------------------------------------------------------|
D|-00-22-44-55-77-55-44-22(x4)----------------------------------------------|
A|---------------------------------------------------------------------------|
E|---------------------------------------------------------------------------|


Guitar 1
[ Tab from: http://www.guitaretab.com/p/pencey-prep/75537.html ]
e|---------------------------------------------------------------------------|
B|---------------------------------------------------------------------------|
G|-7777777777777777-4444444444444444-----------------------------------------|
D|-7777777777777777-4444444444444444-5555555555555555-55555555---------------|
A|-5555555555555555-2222222222222222-5555555555555555-55555555---------------|
E|-----------------------------------3333333333333333-33333333---------------|
Pm **************** **************** ****************

Guitar 2

e|---3-----------3----------3---------3---------------33333333--------------|
B|-----2(x4)------2(x4)-----3-(x4)--3---------------33333333--------------|
G|-2-----------0----------0-----------0---------------00000000--------------|
D|----------------------------------------------------00000000--------------|
A|----------------------------------------------------22222222--------------|
E|----------------------------------------------------33333333--------------|


Guitar 1

e|-2222222222222222------------------------------------3333333333333333----|
B|-3333333333333333-3333333333333333--2222222222222222-3333333333333333----|
G|-2222222222222222-0000000000000000--2222222222222222-0000000000000000----|
D|------------------2222222222222222--2222222222222222-0000000000000000----|
A|------------------2222222222222222-------------------2222222222222222----|
E|-----------------------------------------------------3333333333333333----|

								       (x2)
Guitar 2

e|-2222222222222222------------------------------------3333333333333333----|
B|-3333333333333333-3333333333333333--2222222222222222-3333333333333333----|
G|-2222222222222222-0000000000000000--2222222222222222-0000000000000000----|
D|------------------2222222222222222--2222222222222222-0000000000000000----|
A|------------------2222222222222222-------------------2222222222222222----|
E|-----------------------------------------------------3333333333333333----|
Pm **  **  **  **   **  **  **  **    **  **  **  **   **  **  **  **

								       (x2)
Guitar 1

e|--5-3-2-----3/5-3-2-2h3p2-----3/5-3-2-3-----------------|
B|--------3-----------------3-----------------------------|
G|--------------------------------------------------------|
D|--------------------------------------------------------|
A|--------------------------------------------------------|
E|--------------------------------------------------------|


Guitar 2

e|-22222222-------------------33333333--------------------|
B|-33333333-33333333-22222222-33333333--------------------|
G|-22222222-00000000-22222222-00000000--------------------|
D|----------22222222-22222222-00000000--------------------|
A|----------22222222----------22222222--------------------|
E|----------------------------33333333--------------------|

Guitar 1

e|--------------------------------------------------------------33-22-00-2---|
B|---------------------------------------------------------------------------|
G|-7777777777777777-4444444444444444-----------------------------------------|
D|-7777777777777777-4444444444444444-5555555555555555-55555555---------------|
A|-5555555555555555-2222222222222222-5555555555555555-55555555---------------|
E|-----------------------------------3333333333333333-33333333---------------|
Pm **************** **************** **************** ********

Guitar 2

e|---------------------------------------------------------------------------|
B|---------------------------------------------------------------------------|
G|---------------------------------------------------------------------------|
D|-55-44-55-44-55-44-22-00-(x3)---------------------00-22-44-55-77-55-44-22--|
A|---------------------------------------------------------------------------|
E|---------------------------------------------------------------------------|


Guitar 1

e|---------------------------------------------------------------------------|
B|---------------------------------------------------------------------------|
G|-7777777777777777-4444444444444444-----------------------------------------|
D|-7777777777777777-4444444444444444-5555555555555555-55555555---------------|
A|-5555555555555555-2222222222222222-5555555555555555-55555555---------------|
E|-----------------------------------3333333333333333-33333333---------------|
Pm ** **** ** ****  ** **** ** ****  ** **** ** ****

Guitar 2

e|---3-----------3----------3---------3---------------33333333--------------|
B|-----2(x4)------2(x4)-----3-(x4)--3---------------33333333--------------|
G|-2-----------0----------0-----------0---------------00000000--------------|
D|----------------------------------------------------00000000--------------|
A|----------------------------------------------------22222222--------------|
E|----------------------------------------------------33333333--------------|


Guitar 1

e|-2222222222222222------------------------------------3333333333333333----|
B|-3333333333333333-3333333333333333--2222222222222222-3333333333333333----|
G|-2222222222222222-0000000000000000--2222222222222222-0000000000000000----|
D|------------------2222222222222222--2222222222222222-0000000000000000----|
A|------------------2222222222222222-------------------2222222222222222----|
E|-----------------------------------------------------3333333333333333----|

								       (x2)
Guitar 2

e|-2222222222222222------------------------------------3333333333333333----|
B|-3333333333333333-3333333333333333--2222222222222222-3333333333333333----|
G|-2222222222222222-0000000000000000--2222222222222222-0000000000000000----|
D|------------------2222222222222222--2222222222222222-0000000000000000----|
A|------------------2222222222222222-------------------2222222222222222----|
E|-----------------------------------------------------3333333333333333----|
Pm **  **  **  **   **  **  **  **    **  **  **  **   **  **  **  **

								       (x2)


Guitar 1

e|-2222222222222222------------------------------------3333333333333333----|
B|-3333333333333333-3333333333333333--2222222222222222-3333333333333333----|
G|-2222222222222222-0000000000000000--2222222222222222-0000000000000000----|
D|------------------2222222222222222--2222222222222222-0000000000000000----|
A|------------------2222222222222222-------------------2222222222222222----|
E|-----------------------------------------------------3333333333333333----|

Guitar 2

e|---------------------------------------------------------------------------|
B|---------------------------------------------------------------------------|
G|---------------------------------------------------------------------------|
D|-00-22-44-55-77-55-44-22(x3)--0----7777-55-44-22--------------------------|
A|---------------------------------------------------------------------------|
E|---------------------------------------------------------------------------|


Guitar 1

e|-2222222222222222------------------------------------3333333333333333----|
B|-3333333333333333-3333333333333333--2222222222222222-3333333333333333----|
G|-2222222222222222-0000000000000000--2222222222222222-0000000000000000----|
D|------------------2222222222222222--2222222222222222-0000000000000000----|
A|------------------2222222222222222-------------------2222222222222222----|
E|-----------------------------------------------------3333333333333333----|


Guitar 2

e|-2-2-2-2-2-2-2-2------------------------------------3-3-3-3-3-3-3-3----|
B|-3-3-3-3-3-3-3-3--3-3-3-3-3-3-3-3--2-2-2-2-2-2-2-2--3-3-3-3-3-3-3-3----|
G|-2-2-2-2-2-2-2-2--0-0-0-0-0-0-0-0--2-2-2-2-2-2-2-2--0-0-0-0-0-0-0-0----|
D|------------------2-2-2-2-2-2-2-2--2-2-2-2-2-2-2-2--0-0-0-0-0-0-0-0----|
A|------------------2-2-2-2-2-2-2-2-------------------2-2-2-2-2-2-2-2----|
E|----------------------------------------------------3-3-3-3-3-3-3-3----|
Pm * * * * * * * *  * * * * * * * *  * * * * * * * *  * * * * * * * *


Guitar 1

e|-2-----2---22------------------------3--------------2------------------|
B|-3-----3---333-----3-----2-----2-----3--------------3------------------|
G|-2-----2---220-----0-----2-----2-----0--------------2------------------|
D|-------------2-----2-----2-----2-----0---------------------------------|
A|-------------2-----2-----------------2---------------------------------|
E|-------------------------------------3---------------------------------|


Guitar 2

e|------------0-----0------2-----2---------------------------------------|
B|-3-----3------0-----0------2-------------------------------------------|
G|---2-----2-------------------------------------------------------------|
D|---------------------------------------55-44-22-4----------------------|
A|-----------------------------------------------------------------------|
E|-----------------------------------------------------------------------|
Pm				       ** ** ** *
Related for Secret Goldfish tab