Guitaretab - guitar tabs
Song name
# A B C D E F G H I J K L M N O P Q R S T U V W X Y Z

Pendragon - Walls Of Babylon tab

Pendragon
Walls of Babylon

Intro:

  0:58                                                       1:22
e|-------------------11----------------------------------------11--------------------|
B|-11b13rb12---11b1311b13------------9-11-----------9-11----------------------------|
G|------------------------rb12-------------12~------------12~--10b12rb10h8----8h10~--|
D|-------------------------------13-13---------13-13------------------------10-------|
A|-----------------------------------------------------------------------------------|
E|-----------------------------------------------------------------------------------|

e|-------------------------|---------------------------------------------------------|
B|-------------------------|-----------------16h18-13-15h16----13--/6----------------|
G|-------8-----------------|-------8-10h(11)----------------15-----------------------|
D|-8--10---8-10-8-----8h10-|-10-10---------------------------------------------------|
A|----------------8h6------|---------------------------------------------------------|
E|-------------------------|---------------------------------------------------------|
  1:55                                                     2:07
e|--------------------------------------------------------|--------------------------|
B|-12h13h11----12h13h11-----------------------------------|-8h9h11h(8)-8h9h9h(8)----|
G|----------12----------12---------8-12-12h13h12--8----10-|--------------------------|
D|-------------------------13-8-13------------------13----|--------------------------|
A|--------------------------------------------------------|--------------------------|
E|--------------------------------------------------------|--------------------------|

e|-----------------------------------|-----------------------------------------------|
B|-------8h9------8h9----------------|---------6/8h9h8----------------5/6-8h6h8h9h8-|
G|--------------------(8)-10-8-------|-4/5-4/5--------8--8-5-8--8-5-8----------------|
D|-10-10-----(10)--------------10/8b-|----------------------------------------------|
A|-----------------------------------|-----------------------------------------------|
E|-----------------------------------|-----------------------------------------------|

e|---------|-------------------------------------------1111h8-|--11h13h11h8-11h13--|
B|-6-8h9h8-|-8h9h11-(8)8h9h9-(8)-------8h9----8h98h9---------|---------------------|
G|---------|---------------------------------------------------|---------------------|
D|---------|----------------------10-10----(10)----------------|---------------------|
A|---------|---------------------------------------------------|---------------------|
E|---------|---------------------------------------------------|---------------------|
[ Tab from: http://www.guitaretab.com/p/pendragon/73641.html ]
e|-11h3-11h13~~~--13h13-(11)-11h8-11h13h11h8-------13h11-------|---------------------|
B|-------------------------------------------11h13-------11h13-|--9----9--11-13b-13--|
G|-------------------------------------------------------------|----10---------------|
D|-------------------------------------------------------------|---------------------|
A|-------------------------------------------------------------|---------------------|
E|-------------------------------------------------------------|---------------------|
                                                                       3:21
e|---------|-----------------------------------------------------16-13/--16-13-16h18-|
B|-11h9/11-|-13b-(13)-16-(13)-14-14--------13h14-----13h15-13h15---------------------|
G|---------|-------------------------------------------------------------------------|
D|---------|-------------------------15-15-------(15)--------------------------------|
A|---------|-------------------------------------------------------------------------|
E|---------|-------------------------------------------------------------------------|

e|-16--13--16h18-16h18-16h18-16h18-----18h16-16-13-16h18-18h16----13-------18h16-----|
B|-------------------------------------------------------------------16h18-----------|
G|-----------------------------------------------------------------------------------|
D|-----------------------------------------------------------------------------------|
A|-----------------------------------------------------------------------------------|
E|-----------------------------------------------------------------------------------|

e|-13---------------------------------------------|----------------------------------|
B|----16h18h16--14----14--1618b-18-16-(18)-14-16-|-4h2-4h6~~~----4h6----------------|
G|-----------------15-----------------------------|---------3---------2/3------------|
D|------------------------------------------------|----------------------------------|
A|------------------------------------------------|----------------------------------|
E|------------------------------------------------|----------------------------------|

Bridge
4:50
e|------------------------------------------------------------------------------------||
B|-14---14---14-----14-14----14--14--14--------------------16--13-13-13h14h16-14------||
G|----15---15---15---------15--15--15----1513h(15)-11-11----15-----------------15-13-|| X2
D|------------------------------------------------------------------------------------||
A|------------------------------------------------------------------------------------||
E|------------------------------------------------------------------------------------||

Pos-verse 
5:37                                            7:26         7:35 Pre-Solo
e|--------|-----------------------------||----||------------|-----------------------------------|
B|--------|-----------------------------||----||------------|-16-14-13--16-14-13b14-13h14-14~~~-|
G|-4b1rb4-|-----------------------------||----||-5----------|-----------------------------------|
D|-4b1----|---------------2-------------||-X2-||-5----(0)-6-|-----------------------------------|
A|--------|-0h2h4-----2h4---2-4---0h2h4-||----||------(0)-6-|-----------------------------------|
E|--------|-----------------------------||----||------------|-----------------------------------|


Related for Walls Of Babylon tab