Song name
# A B C D E F G H I J K L M N O P Q R S T U V W X Y Z

Pendulum - The Tempest tab

-------------------------------------------------------------------------------
			     The Tempest - Pendulum
-------------------------------------------------------------------------------
Tabbed by: Andy
Email: andy_rhcp@hotmail.co.uk
This is my first tab so don't be too harsh =P

Tuning: Standard EADGBe

Intro - clean guitar with delay
e|---------------------------------------------------------------------------|
B|--------------4-4-3--------------------------------------------------------|
G|------5-5-3-3-------5-----5-5-3-3------------------------------------------|
D|--3-3-----------------3-3---------5-5-3------------------------------------|
A|---------------------------------------------------------------------------|
E|---------------------------------------------------------------------------|

e|---------------------------------------------------------------------------|
B|--------------4-4-3--------------------------------------------------------|
G|------5-5-3-3-------5-----3-3-1-1-0-0--------------------------------------|
D|--3-3-----------------3-3-------------3------------------------------------|
A|---------------------------------------------------------------------------|
E|---------------------------------------------------------------------------|

  Overdriven Guitar
e|---------------------------------------------------------------------------|
B|---------------------------------------------------------------------------|
G|---------------------------------------------------------------------------|
D|--6--5--8--------3h5-------3------3h5------3-------------------------------|
A|--4--3--6--6--3--------------------------------------------------------3---|
E|-----------4--1-----1-1-1---1-1-1----1-1-1---1-1-1--4h6-6-6-6-6-6--6---4-4-|

e|---------------------------------------------------------------------------|
B|---------------------------------------------------------------------------|
G|---------------------------------------------------------------------------|
D|--------------------------6--5--8------------------------------------------|
A|--3-3-3-3-3-3-3-3-3-3-3---4--3--6--6--3------------------------------------|
E|--1-1-1-1-1-1-1-1-1-1-1------------4--1------------------------------------|
      pm-----   pm-   pm-


While you were letting guard down...
e|---------------------------------------------------------------------------|
B|---------------------------------------------------------------------------|
G|------6---8----------------------------------------------------------------|
D|--3---6---8---8------------------------------------------------------------|
A|--3---4---6---8------------------------------------------------------------|
E|--1-----------6------------------------------------------------------------|

  Instrumental
e|---------------------------------------------------------------------------|
B|---------------------------------------------------------------------------|
G|---------------------------------------------------------------------------|
D|---------------------------------6--5--8-----------------------------------|
A|------------1-3-4-6-8------------4--3--6--6--3-----------------------------|
E|--1-3-4-6-8-----------1-3-4-6-8-----------4--1-----------------------------|

Outro
e|---------------------------------------------------------------------------|
B|---------------------------------------------------------------------------|
G|---------------------------------------------------------------------------|
D|---------------------------------------------------------------------------|
A|-------------4-3-6-----------------4-3-------------------------------------|
E|--1-3-4-6-8--------4-1---1-3-4-6-8-----4-4-1-------------------------------|



| /  slide up
| \  slide down
| h  hammer-on
| p  pull-off
| ~  vibrato
| +  harmonic
| x  Mute note
Tap to rate this tab
# A B C D E F G H I J K L M N O P Q R S T U V W X Y Z