Song name
# A B C D E F G H I J K L M N O P Q R S T U V W X Y Z

Pendulum - The Tempest Acoustic tab

Tabbed by:Sean Morrissey
Email:marzysm@hotmail.com

Tuning: Standard (EADBGe)

Relative to a capo on the 2nd fret

e|--------------------------------------------------------------------------|
B|--------------4-4-3-------------------------------------------------------|
G|------5-5-3-3-------5-----5-5-3-3-----------------------------------------|
D|--3-3-----------------3-3---------5-5-3-----------------------------------|
A|--------------------------------------------------------------------------|
E|--------------------------------------------------------------------------|

e|--------------------------------------------------------------------------|
B|--------------4-4-3-------------------------------------------------------|
G|------5-5-3-3-------5-----3-3-1-1-0-0-------------------------------------|
D|--3-3-----------------3-3-------------3-----------------------------------|
A|--------------------------------------------------------------------------|
E|--------------------------------------------------------------------------|
Tap to rate this tab
 
# A B C D E F G H I J K L M N O P Q R S T U V W X Y Z