Song name
# A B C D E F G H I J K L M N O P Q R S T U V W X Y Z

Pendulum - The Island Part 1 tab

Here is the main tune bit :) hope you enjoy

(0:45)

E|-----------------0------3----1---0--------0---------------------0--------|
B|---------1---3------------------------------3--1---3-------1--3----1-----|
G|---2--2---------------2----------------0------------------------------2--| x4
D|-------------------------------------------------------------------------|
A|-------------------------------------------------------------------------|
E|-------------------------------------------------------------------------|

E|-----|---------------------------------------------0------------------|
B|-----|----1---3---1-1----1--3---1-1----1--3--1-1------3--1--0---------|
G|---2-|-2-------------------------------------------------------2------| x2
D|-----|----------------------------------------------------------------|
A|-----|----------------------------------------------------------------|
E|-----|----------------------------------------------------------------|
Tap to rate this tab
 
# A B C D E F G H I J K L M N O P Q R S T U V W X Y Z