Pendulum - Witchcraft tab

Pendulum- witchcraft
Tab for the main riff
Creator- Matthew Finn


-------11-8----------------------8-------11--11--13----|
----9--------9--8-----11--9--11------------------------|
-10---------------10----------------10-----------------|
-------------------------------------------------------|
-------------------------------------------------------|
-------------------------------------------------------|


-------11-8------------------------------11--11--13----|
----9--------9--8-----11--9--8-------------------------|
-10---------------10-------------8--10-----------------|
-------------------------------------------------------|
-------------------------------------------------------|
-------------------------------------------------------|


-------11-8----------------------8--------11--11--13---|
----9--------9--8-----11--9--11------------------------|
-10---------------10----------------10-----------------|
-------------------------------------------------------|
-------------------------------------------------------|
-------------------------------------------------------|



-------11-8--------------------------------------------|
----9--------9--8-----11--9--8-------------------------|
-10---------------10-------------8--10-----------------|
-------------------------------------------------------|
-------------------------------------------------------|
-------------------------------------------------------|

Backed by chords

Em C D Am x4 with capo on 1st fret
Tap to rate this tab
 
# A B C D E F G H I J K L M N O P Q R S T U V W X Y Z