Pendulum - The Island Part 1 tab

-------------------------------------------------------------------------------
			     The island - pendulum
-------------------------------------------------------------------------------
Tabbed by: Lozenj552
Email: laurie.dibble@virgin.net

the timing is quite tricky

  Am       F         C       G
e|---------0---3-1-0---0------------0----------------------------------------|
B|-----1-3---------------3-1-3--1-3---1--------------------------------------|
G|-2-2-------2-------2-------------------------------------------------------|   
D|---------------------------------------------------------------------------|
A|---------------------------------------------------------------------------|
E|---------------------------------------------------------------------------|
  Am       F         C       G
e|---------0---3-1-0---0------------0----------------------------------------|
B|-----1-3---------------3-1-3--1-3---1--------------------------------------|
G|-2-2-------2-------2-------------------------------------------------------|   
D|---------------------------------------------------------------------------|
A|---------------------------------------------------------------------------|
E|---------------------------------------------------------------------------|
  Am       F         C       G     
e|----------------------------------0----------------------------------------|
B|-----1-3-1-1----1-3-1-1---1-3-1-1---3-1-0----------------------------------|
G|-2-2----------2---------2--------------------------------------------------|   
D|---------------------------------------------------------------------------|
A|---------------------------------------------------------------------------|
E|---------------------------------------------------------------------------|

  Am       F         C       G     
e|------------------------------------0--------------------------------------|
B|-----1-3-1-1----1-3-1-1---1-1---1-1---3-1-0--------------------------------|
G|-2-2----------2---------2-----2--------------------------------------------|   
D|---------------------------------------------------------------------------|
A|---------------------------------------------------------------------------|
E|---------------------------------------------------------------------------|
Tap to rate this tab
 
# A B C D E F G H I J K L M N O P Q R S T U V W X Y Z