Song name
# A B C D E F G H I J K L M N O P Q R S T U V W X Y Z

Pendulum - Hold Your Colour Live tab

!!!!THIS IS CONCERT version it wont be identical with album version!!!!
maybe first see this http://www.youtube.com/watch?v=o5CvtKKb3nQ

E|--------------------------------------------------------------------------|
B|---15--15--15--15--18-----------------------------------------------------|
G|--------------------------------------------------------------------------|4X
D|--------------------------------------------------------------------------|
A|--------------------------------------------------------------------------|
E|--------------------------------------------------------------------------|
Play this in every verse too
E|----------------------------------------------------------------------------|
B|------15-15-15-15-18--15-15-15-18h20--15-15-15-15-18------------------------|
G|----------------------------------------------------12-15--15--12--10-12-15-|
D|--------------------------------------------------------12--10--10----------|
A|----------------------------------------------------------------------------|
E|----------------------------------------------------------------------------|
Tap to rate this tab
 
# A B C D E F G H I J K L M N O P Q R S T U V W X Y Z