Song name
# A B C D E F G H I J K L M N O P Q R S T U V W X Y Z

Pendulum - Fasten Your Seatbelt tab

This is tabbed by ear but it sounds correct, enjoy!

Main Riff

|-------------------------------------------------------|
|-------------------------------------------------------|
|-------------------------------------------------------|
|----5-7-8-5-2-----------------5-7-8-5-2----------------|
|---------------5--5--1--0----------------1--1--4--5--6-|
|---------------------------3---------------------------|

|-------------------------------------------------------|
|-------------------------------------------------------|
|-------------------------------------------------------|
|----5-7-8-5-2-----------------5-7-8-5-2----------------|
|---------------5--5--1--0----------------1--1--4-------|
|---------------------------3---------------------------|

|-------------------------------------------------------|
|-------------------------------------------------------|
|-------------------------------------------------------|
|----5-7-8-5-2-----------------5-7-8-5-2----------------|
|---------------5--5--1--0----------------1--1--4--5--6-|
|---------------------------3---------------------------|

|-------------------------------------------------------|
|-------------------------------------------------------|
|-------------------------------------------------------|
|----5-7-8-5-2-----------------5-7-8-5-2----------------|
|---------------5--5--1--0----------------5--5--5/17----|
|---------------------------3---------------------------|


     Legend:

     /=Slide
Tap to rate this tab
 
# A B C D E F G H I J K L M N O P Q R S T U V W X Y Z