Song name
# A B C D E F G H I J K L M N O P Q R S T U V W X Y Z

Pendulum - The Vulture tab

-12-11----9-------------------9------12-11----9---------------------9-------|
-------12-------------9-10-12--------------12---------------9-10-12---------|
------------11-11-11-----------11--------------11--11-11-11-----------11----|
----------------------------------------------------------------------------|
----------------------------------------------------------------------------|
----------------------------------------------------------------------------|

---12-11----9-------------------9------12-11---9----------------------------|
---------12-------------9-10-12--------------12---------------9-10-12-10-9--|
--------------11-11-11-----------11-------------11------11-11---------------|
----------------------------------------------------------------------------|
----------------------------------------------------------------------------|
----------------------------------------------------------------------------|

---------|
---------|
-9---11--|
---11----|
---------|
---------|

This should be it, repeat throughout the song and listen to it for the exact rhytm.
Tap to rate this tab
# A B C D E F G H I J K L M N O P Q R S T U V W X Y Z