Song name
# A B C D E F G H I J K L M N O P Q R S T U V W X Y Z

Pendulum - Witchcraft tab

Drop D


INTRO

Part 1 (It's in your eyes...)
e|-------------------------------------|
B|--------------4----------------------|
G|------5---------------8--------------| 4x
D|----3---6---3---6---8---8------10-8--|
A|----------4-------6----------8-------|
D|--3-----------------------8----------|

Part 2 (Does it feel like...)
e|-----------------------------------|
B|------4-------4--------------------|
G|----------------------8-------8----|
D|----3---6---3---6---8---8---8---8--|
A|--4-------4-------6-------6--------|
D|-----------------------------------|

e|-----------------------------------|
B|-----------------------------------|
G|------5-------5-------8-------8----|
D|----3---6---3---6---6---6---6---6--|
A|-----------------------------------|
D|--3-------3-------6-------6--------|

e|-----------------------------------|
B|------4-------4--------------------|
G|----------------------8-------8----|
D|----3---6---3---6---8---8---8---8--|
A|--4-------4-------6-------6--------|
D|-----------------------------------|

e|--------------------------------------|
B|--------------------------------------|
G|------5-------5-------8--------10-----|
D|----3---6---3---6---6---6-------------|
A|----------------------------11----11--|
D|--3-------5-------6-------8-----------|


BRIDGE

e|-------11-8--------------------8------11-11-13--|
B|-----9--------9-8----11---9-11------------------|
G|--10--------------10-------------10-------------|
D|------------------------------------------------|
A|------------------------------------------------|
D|------------------------------------------------|

e|-------11-8--------------------------11-11-13--|
B|-----9--------9-8----11---9-8------------------|
G|--10--------------10----------8-10-------------|
D|-----------------------------------------------|
A|-----------------------------------------------|
D|-----------------------------------------------|

Play twice then end on

e|-------------------|
B|--11---9-8---------|
G|-----------8-10\\--|
D|-------------------|
A|-------------------|
D|-------------------|

Play this over

e|----------------------------|
B|----------------------------|
G|--------6------------3------|
D|--3-----6-8x--1------3--8x--|
A|--3-8x--4-----1--8x--1------|
D|--3-----------1-------------|


MAIN RIFF

Part 1
e|-------------------------------------------------|
B|-------------------------------------------------|
G|------------------------------------6--5-3-5-----|
D|--3--3-5-3---3-3-5-6---3--3-5-3---3-----------6--|
A|--3--------6---3-------3--------6----------------|
D|--3------------3-------3-------------------------|

e|----------------------------------------------|
B|----------------------------------------------|
G|-------------------------------------6--5-----|
D|--3--3-5-3---3-3-5-6---3--3-5-3---3--------6--|
A|--3--------6---3-------3--------6-------------|
D|--3------------3-------3----------------------|

e|-------------------------------------------------|
B|-------------------------------------------------|
G|------------------------------------6--5-3-5-----|
D|--3--3-5-3---3-3-5-6---3--3-5-3---3-----------6--|
A|--3--------6---3-------3--------6----------------|
D|--3------------3-------3-------------------------|

e|-----------------------------------|
B|-----------------------------------|
G|-----------------------------------|
D|--3--3-5-3---3-3-5-6---3-----1-----|
A|--3--------6---3-------3-8x--1-8x--|
D|--3------------3-------3-----1-----|


If you have any queries or improvements, my email
---------------------------
capt.spillage@hotmail.co.uk
---------------------------
Tap to rate this tab
# A B C D E F G H I J K L M N O P Q R S T U V W X Y Z