Song name
# A B C D E F G H I J K L M N O P Q R S T U V W X Y Z

Penguin Cafe Orchestra - Pauls Dance tab

tabbed by: robertdanielmaher (at) gmail (dot) com


Penguin Cafe Orchestra - Paul's Dance


ukulele arranged for the guitar.

Standard tuning, capo 5

 |----------------|----------------|----------------|----------------|
 |----3-------3---|----3-------3---|----3-------3---|----10----------|
.|--4-------4-----|--2-------2-----|--1-------1-----|--6-----020-----|.
.|5-----4-5-----4-|4-----4-4-----4-|2-----2-2-----2-|7-----7-------4-|.
 |----------------|----------------|----------------|----------------|
 |----------------|----------------|----------------|----------------|
                                             hammer-on/pulloff^

 |----------------|----------------|
 |----3-------3---|----10----10----|
.|--2-----2-----2-|--6-----6-----6-|.
.|4-----6---6-----|7-----7-----7---|.
 |----------------|----------------|
 |----------------|----------------|


notes:

10 means the tenth fret, 020 means the hammer/pull

the timing is 4/4, however it's very loosy goosy, so slow down and speed up with some feeling!

this "guitar tab" can be played on an ukulele without a capo, strings 1-4 on the guitar 
are equivalent to strings 1-4 on an ukulele.
Tap to rate this tab
# A B C D E F G H I J K L M N O P Q R S T U V W X Y Z