Song name
# A B C D E F G H I J K L M N O P Q R S T U V W X Y Z

Penknifelovelife - Touch Me Again And Ill Stab A Screwdriver Into Your Face tab

Hey, this is my first tab, so I dont know how it'll sound

Comments Apprediated

An amazing song by an amazing band

PenknifeLovelife

Touch Me Again And I'll Stab A Screwdriver Into Your Face

www.myspace.com/penknifelovelife

www.penknifelovelife.co.uk

www.purevolume.com/penknifelovelifeuk


Tuning:
Db Ab Db Gb Bb Eb

Verse:

Guitar 1:

-------------------------|
-------------------------|
-------------------------|
--000-000-000-000--------|
--000-000-000-000--------|
--000-000-000-000--------|
  **  **  **  **   PM on the first two, then let third ring

Guitar 2:

-------------------------------------------------------------------------|
------------------------------------8------------------------------------|
---------------------------7-10-9-7---10-9h10p9---------------   Repeat--| 2x
----------5-------------------------------------10-----------------------|
-5-8-7-55---8-7h8p7------------------------------------------------------|
-------------------10----------------------------------------------------|

----------------------------------------------------------------|
------------------------------------8---------------------------|
---------------------------7-10-9-7---10-9h10p9-----------------|
-----------5-7-8-7-----------------------------------10---------|
-5-8-7-5--------------------------------------------------------|
----------------------------------------------------------------|

--------------------------------------------------------------|
------------------------------------8-------------------------|
---------------------------7-10-9-7---10-9h10p9---------------|
---------5--------------------------------------10------------|
-5-8-7-5---8-7h8p7--------------------------------------------|
-------------------10-----------------------------------------|


Chorus:

Both Guitars:

-------------------------|
-------------------------|
-------------------------|
-3333333-3---333-0-------|
-3333333-3---333-0-------|
-3333333-3---333-0-------|
 *******         Let open strings ring       REPEAT ALL

-------------------------|
-5--55-6-8---------------|
-5--55-5-7---------------|
-------------------------|
-------------------------|
-------------------------|

Play Verse again:

--------------------------------------------------------------|
------------------------------------8-------------------------|
---------------------------7-10-9-7---10-9h10p9---------------|   Repeat 2x
---------5--------------------------------------10------------|
-5-8-7-5---8-7h8p7--------------------------------------------|
-------------------10-----------------------------------------|

----------------------------------------------------------------|
------------------------------------8---------------------------|
---------------------------7-10-9-7---10-9h10p9-----------------|
----------5-7-8-7-----------------------------------10----------|
-5-8-7-5--------------------------------------------------------|
----------------------------------------------------------------|

--------------------------------------------------------------|
------------------------------------8-------------------------|
---------------------------7-10-9-7---10-9h10p9---------------|
---------5--------------------------------------10------------|
-5-8-7-5---8-7h8p7--------------------------------------------|
-------------------10-----------------------------------------|

Repeat Chorus:

Both Guitars:

-------------------------|
-------------------------|
-------------------------|
-3333333-3---333-0-------|
-3333333-3---333-0-------|
-3333333-3---333-0-------|
 *******         Let open strings ring       REPEAT ALL

-------------------------|
-5--55-6-8---------------|
-5--55-5-7---------------|
-------------------------|
-------------------------|
-------------------------|

Bridge Part:

-------|
---4---|         Repeat 7x
-----4-|
-------|
-------|
-------|

For the eighth time:

---6----|
-----4--|
--------|
--------|
--------|
--------|

Then

--------6----------6---------4-------------------|
-----4----4-----4-----4----4---4-----4---7---4---|
--4----------4-----------4--------4--------------|    Repeat a few times
-------------------------------------------------|
-------------------------------------------------|
-------------------------------------------------|


Outro:

Guitar one:

-----------------|
-----------------|
-----------------|
-00000-----------|     Repeat 16x
-00000-----------|
-00000-----------|
 *****

-----------------|
-----------------|
---9h10p9--------|    Play twice, one on each eighth PM open strings
----------10-----|
-----------------|
-----------------|
Tap to rate this tab
# A B C D E F G H I J K L M N O P Q R S T U V W X Y Z