Song name
# A B C D E F G H I J K L M N O P Q R S T U V W X Y Z

Pennywise - American Dreams tab

Intro(palm mute) 
e|------------------------------------------------------------------------| 
B|------------------------------------------------------------------------| 
G|-----------------7-7-7-7-7-7-7-7----------------------------------------| 
D|2-2-2-2-2-2-2-2--7-7-7-7-7-7-7-7--7-7-7-7-7-7-7-7---5-5-5-5-------------| 
A|2-2-2-2-2-2-2-2--5-5-5-5-5-5-5-5--7-7-7-7-7-7-7-7---5-5-5-5-------------| 
E|0-0-0-0-0-0-0-0-------------------5-5-5-5-5-5-5-5---3-3-3-3-------------| 
 
Fill 
e|------------------------------------------------------------------------| 
B|------------------------------------------------------------------------| 
G|---------------------------9--11---12-----------------------------------| 
D|-7-7-7------------------------------------5-5--7-7----------------------| 
A|-7-7-7---------------------7--9----10-----5-5--7-7----------------------| 
E|-5-5-5------------------------------------3-3--5-5----------------------| 
 
Verse and Chorus use same chords,get rhythm from the cd 
e|------------------------------------------------------------------------| 
B|------------------------------------------------------------------------| 
G|---------7--------------------------------------------------------------| 
D|-2-------7-----7-----5----7---------------------------------------------| 
A|-2-------5-----7-----5----7---------------------------------------------| 
E|-0-------------5-----3----5---------------------------------------------| 
 
Solo(use this scale and solo chuck berry style and improvise) 
e|--------------------------------------------------------12---15---------| 
B|---------------------------------------------12---15--------------------| 
G|-----------------------------------12--14-------------------------------| 
D|-------------------------12---14----------------------------------------| 
A|--------------12 ---14--------------------------------------------------| 
E|----12---15-------------------------------------------------------------| 
 
(you get the point) 
e|----------12----------------12------------------------------------------| 
B|-------12---------------12----------------------------------------------| 
G|-14b-------------14b----------------------------------------------------| 
D|------------------------------------------------------------------------| 
A|------------------------------------------------------------------------| 
E|------------------------------------------------------------------------|

have fun!!! 
Tap to rate this tab
 
# A B C D E F G H I J K L M N O P Q R S T U V W X Y Z