Song name
# A B C D E F G H I J K L M N O P Q R S T U V W X Y Z

Pennywise - Rise Up tab

-------------------------------------------------------------------------------
			     Rise Up - Pennywise
-------------------------------------------------------------------------------
Tabbed by:Christ_air
Email:Christ_air@skateboard.com

Tuning:EADGBE

Intro (repeat x2)                             Then play this

e|---------------------------------------------------------------------------|
B|---------------------------------------------------------------------------|
G|---------------------------------------------------------------------------|
D|---------------------------------------------------------------------------|
A|----444-------777-------999----777----444----444----7----4----7------------|
E|----222xxx----555xxx----777----555----222----222----5----2----5------------|

e|---------------------------------------------------------------------------|
B|---------------------------------------------------------------------------|
G|---------------------------------------------------------------------------|
D|---------------------------------------------------------------------------|
A|----777----9----7----9-----444----7----4----7----2-------------------------|
E|----555----7----5----7-----222----5----2----5----0-------------------------|

There U go, that's as far as I can TAB it!

| /  slide up
| \  slide down
| h  hammer-on
| p  pull-off
| ~  vibrato
| +  harmonic
| x  Mute note
===============================================================================
Tap to rate this tab
# A B C D E F G H I J K L M N O P Q R S T U V W X Y Z