Song name
# A B C D E F G H I J K L M N O P Q R S T U V W X Y Z

Pennywise - Waiting tab

Help us improve GuitareTab! Take a short survey!
This is my version of this great song by pennywise, i think that it is correct, have fun


Main Riff;

E------12-14-12---------12-14-15-12-----12-14-12---------------|
B-12-15--------15-12-15------------12-15--------15-12-12-12-12-|
G--------------------------------------------------------------|
D--------------------------------------------------------------|
A--------------------------------------------------------------|
E--------------------------------------------------------------|

The chords which are used during the main riff, are the same chords which are used for the chorus

I havnt done the chord strumming patterns, but i have shown the chord changes

Verse;

E-------------------------|
B-------------------------|
G-4---9-7---9-----9-----9-|
D-4---9-7---9-9---9-7---9-|
A-2---7-5---7-9---7-7---7-|
E-------------7-----5-----|

Chorus;

  Waiting..
E----------------------------|
B----------------------------|
G-4---------7----------------|
D-4---------7---7---5--7--5--|
A-2---------5---7---5--7--5--|
E---------------5---3--5--3--|

Thanx for looking at my tab, hope you have fun out of it, guitarandy
Related for Waiting tab