Song name
# A B C D E F G H I J K L M N O P Q R S T U V W X Y Z

Pennywise - Judgment Day tab

Help us improve GuitareTab! Take a short survey!
-------------------------------------------------------------------------------
			     Judgment Day (Intro) - Pennywise
-------------------------------------------------------------------------------
Tabbed by: CT
Email: Saints_20@hotmail.com

Tuning: Standard

I know intros are "not much welcomed here," but F-it, the rest of the tabs for this
song are great.  This is just the way I play the intro.

e|--7-7-7-77--8-8-7-7--7-7-7-77--10-10-10-7----------------------------------|
B|--5-5-5-55--5-5-5-5--8-8-8-88---8--8--8-8----------------------------------|
G|---------------------------------------------------------------------------|
D|---------------------------------------------------------------------------|
A|---------------------------------------------------------------------------|
E|---------------------------------------------------------------------------|


e|--7-7-7-77--8-8-7-7--7-7-7-77--10-10--7------------------------------------|
B|--5-5-5-55--5-5-5-5--8-8-8-88---8--8--8------------------------------------|
G|---------------------------------------------------------------------------|
D|---------------------------------------------------------------------------|
A|---------------------------------------------------------------------------|
E|---------------------------------------------------------------------------|



Related for Judgment Day tab