Song name
# A B C D E F G H I J K L M N O P Q R S T U V W X Y Z

Pennywise - Just For You tab

Song:Just For You 
Band:Pennywise 
 

intro

E|---------|------------|
B|---------|------------|
G|---------|-------10---|
D|-3-6-5-3-|-3-6-5-10---|
A|-3-6-5-3-|-3-6-5-8----| 
E|-1-4-3-1-|-1-4-3------|
verse

E|-------------|----------|
B|-------------|----------|
G|---6---8-----|----------|
D|-3-6-6-8-8-6-|-3-6-5-3--|
A|-3-4-6-6-8-6-|-3-6-5-3--|
E|-1---4---6-4-|-1-4-3-1--|
Chorus

E|-------------------|
B|-------------------|
G|-6-3---3-----------|
D|-6-3-3-3-6---------|
A|-4-1-3-1-6---------|
E|-----1---4---------|
Bridge

E|-------------------|
B|-------------------|
G|---6---8---8-------|
D|-4-6-6-8-8-8-------|
A|-4-4-6-6-8-6-------|
E|-1---4---6---------|
Tap to rate this tab
 
# A B C D E F G H I J K L M N O P Q R S T U V W X Y Z