Song name
# A B C D E F G H I J K L M N O P Q R S T U V W X Y Z

Pennywise - Time To Burn tab

Tabbed by Travis Eaton

bass intro

ring outs
e---------------------------------|
b---------------------------------|
g---------------------------------|
d-7-7---7---7-7-------------------|
a-5-5---5---5-5---slide scratch---|
e---------------------------------|

Verse(certain sections are palm muted)
e------------------------|
b------------------------|
g------------------------|
d-7-x----10--------------|
a-5-x-10-8--7-7-7-7-7-10-|
e-----8-----5-5-5-5-5-8--|

Chorus(watch for some bits that are muted towards the end)
e-----------------------------------------------------------------------------------------------------------------------|
b-----------------------------------------------------------------------------------------------------------------------|
g-----------------------2----------------------------222----------------------------2-----------------------------------|
d-7-7--7--10-12---------2-4---7-7--7--10-12----------222--4---7-7--7--10-12---------2-4---7-7--7--10-12-----------------|
a-5-5--5--8--10--5-5--5-0-2---5-5--5--8--10--5-5--5--000--2---5-5--5--8--10--5-5--5-0-2---5-5--5--8--10--5-5--55555555--|
e----------------3-3--3----------------------3-3--3------------------------3-3--3----------------------3-3--33333333----|

Verse
Chorus

Bridge(same as verse - but the second guitar does this:)
e----------------------------------------|
b----------------------------------------|
g----------------------------------------|
d-7-------7-------7-7-7-7-77-77-77777777-|
a-5-------5-------5-5-5-5-55-55-55555555-|
e----------------------------------------|
Here we go!

Verse(without words)
Chorus

next bit is same as verse but with these bits muted during the duration of the spoken
word section.(listen to song for order)

e---------------|
b---------------|
g---------------|
d-7-7-----77777-|
a-5-5-----55555-|
e---------------|

Chorus

finish on
e-----------------|
b-----------------|
g-----------------|
d-7-7-7------10-7-|
a-5-5-5---10-8--5-|
e---------8-------|

Ther ya go. Most of the parts you will need to listen to the actual cd to get a grip of 
Have fun with it! and any questions can be sent to ASUrecruits@hotmail.com
Tap to rate this tab
 
# A B C D E F G H I J K L M N O P Q R S T U V W X Y Z