Song name
# A B C D E F G H I J K L M N O P Q R S T U V W X Y Z

Pennywise - Living For Today tab

Date: Mon, 18 Sep 1995 22:39:24 -0600 (MDT)
From: Rambozo 
Subject: Living for Today by PENNYWISE


verse:
e-|--------------------------------------------------------------------
B-|--------------------------------------------------------------------
G-|-----10-10-5-5-7-7------10-10-5-5-7-7------10-10-5-5-7-7------10-10-
D-|-7-7-10-10-5-5-7-7--7-7-10-10-5-5-7-7--7-7-10-10-5-5-7-7--7-7-10-10-
A-|-7-7--8--8-3-3-5-5--7-7--8--8-3-3-5-5--7-7--8--8-3-3-5-5--7-7--8--8-
E-|-5-5----------------5-5----------------5-5----------------5-5-------


e-|-------------|-----------------------------|
B-|-------------|-----------------------------|
G-|-12-12-12-12-|---------------------------5-|
D-|-12-12-12-12-|-7-x-x-x-7-x-x-x-7-x-x-x-7-5-|
A-|-10-10-10-10-|-7-x-x-x-7-x-x-x-7-x-x-x-7-3-|
E-|-------------|-5-x-x-x-5-x-x-x-5-x-x-x-5---|


transcribed by rambozo jjm@nucleus.com
Tap to rate this tab
 
# A B C D E F G H I J K L M N O P Q R S T U V W X Y Z