Song name
# A B C D E F G H I J K L M N O P Q R S T U V W X Y Z

Pennywise - Open Door tab

From: Rambozo 
Subject: OPEN DOOR by PENNYWISE


intro:
e-|-------------------------------------|
B-|-------------------------------------|
G-|---------------5-7-5---------5-7-5---|
D-|-7-7-7---7-7-7-3-5-3-5-7-7-7-3-5-3-5-|
A-|-5-5-5---5-5-5-------3-5-5-5-------3-|
E-|-------------------------------------|

verse:
e-|-----------------------------------------------------------|
B-|-----------------------------------------------------------|
G-|-------5-7-5---------5-7-5---------5-7-5-------------------|
D-|-7-7-7-3-5-3-5-7-7-7-3-5-3-5-7-7-7-3-5-3-5-5-5-8-8-5-5-8-8-|
A-|-5-5-5-------3-5-5-5-------3-5-5-5-------3-3-3-6-6-3-3-6-6-|
E-|-----------------------------------------------------------|


chorus:
e-|-----------------------------------------------------------------
B-|-----------------6-6-6-6-6-6-6-6---------------------6-6-----6-6-
G-|-7-7-7-7-7-7-7-7-5-5-5-5-5-5-5-5-3-3-3-3-3-3-3-3-5-5-5-5-5-5-5-5-
D-|-7-7-7-7-7-7-7-7-3-3-3-3-3-3-3-3-3-3-3-3-3-3-3-3-5-5-3-3-5-5-3-3- x2
A-|-5-5-5-5-5-5-5-5-----------------1-1-1-1-1-1-1-1-3-3-----3-3-----
E-|-----------------------------------------------------------------


e-|-----------------|
B-|-----------------|
G-|-5-5-5-5-5-5-5-5-|
D-|-5-5-5-5-5-5-5-5-|
A-|-3-3-3-3-3-3-3-3-|
E-|-----------------|

uhm.. i'm havin problems figuring out the songs off the self titled album 
just cause theres so much distortion on the cd so if this doesn't sound 
right just put on lots of distortion...(good way to solve a problem eh?)
transcribed by rambozo...
Tap to rate this tab
# A B C D E F G H I J K L M N O P Q R S T U V W X Y Z