Song name
# A B C D E F G H I J K L M N O P Q R S T U V W X Y Z

Pennywise - Live Fast Die Young tab

Intro:
E |-----------------------------------------------------|
B |-----------------------------------------------------|
G |-----------------------------------------------------|
D |--Pick-----------------------------------------------|
A |------ slide-----------------------------------------|
E |-----------------------------------------------------|

E |-----------------------------------------------------|
B |-----------------------------------------------------|
G |-5---------------------------------------------------| x2
D |-5-5-5-5-5-5-5-5-5-----------------------------------|
A |-3-5-5-5-5-5-5-5-5-----------------------------------|
E |---3-3-3-3-3-3-3-3-----------------------------------|



E |-----------------------------------------------------|
B |-----------------------------------------------------|
G |-5---------------------------------------------------| x4
D |-5-5-5-5-5-5-5-5-5-----------------------------------|
A |-3-5-5-5-5-5-5-5-5-----------------------------------|
E |---3-3-3-3-3-3-3-3-----------------------------------|

E |-----------------------------------------------------|
B |-----------------------------------------------------|
G |-44444444----------44444444--------------------------| x1
D |-44444444-77777777-44444444-55555555-----------------|
A |-22222222-77777777-22222222-55555555-----------------|
E |----------55555555----------33333333-----------------|




E |-----------------------------------------------------|
B |-----------------------------------------------------|
G |-4444-5555---7---7-----------------------------------| x6
D |-4444-5555-7-7-7-7-----------------------------------|
A |-2222-3333-7-5-7-5-----------------------------------|
E |-----------5---5-------------------------------------|

E |-----------------------------------------------------|
B |-----------------------------------------------------|
G |-9999-7777-4444-4444---------------------------------| x2
D |-9999-7777-4444-4444---------------------------------|
A |-7777-5555-2222-2222---------------------------------|
E |-----------------------------------------------------|



I Don't know how to play the fast parts ..  If somebody knows how to play ..
Tell me . :)
But this sounds in the right direction. 

E |-----------------------------------------------------|
B |-----------------------------------------------------|
G |-44-55-----------------------------------------------|
D |-44-55---12-12-12-12-12-12-12-12---------------------| x3
A |-22-33---10-10-10-10-10-10-10-10---------------------|
E |-----------------------------------------------------|

E |-----------------------------------------------------|
B |-----------------------------------------------------|
G |-44-55-----------------------------------------------|
D |-44-55---77777777------------------------------------|
A |-22-33---77777777------------------------------------|
E |---------55555555------------------------------------|





E |-----------------------------------------------------|
B |-----------------------------------------------------|
G |-9999-7777-4444-4444---------------------------------| x4
D |-9999-7777-4444-4444---------------------------------|
A |-7777-5555-2222-2222---------------------------------|
E |-----------------------------------------------------|


outro:

E |-----------------------------------------------------|
B |-----------------------------------------------------|
G |-4444-5555---7---7-----------------------------------| x6
D |-4444-5555-7-7-7-7-----------------------------------|
A |-2222-3333-7-5-7-5-----------------------------------|
E |-----------5---5-------------------------------------|
Tap to rate this tab
# A B C D E F G H I J K L M N O P Q R S T U V W X Y Z