Song name
# A B C D E F G H I J K L M N O P Q R S T U V W X Y Z

Pennywise - Die For You tab

Help us improve GuitareTab! Take a short survey!
Artist - Pennywise
Song - Die For You
Album - Reason to Belive

Only got the intro
Play Each Chord Twice (bracket note is optional)

e-----------------------------------------------------------|
b-----------------------------------------------------------|
g------------------------------(5)(5)(4)(4)(2)(2)(4)(4)-----|
d---2-2-2-2-2-2-2-2---2-2-2-2---3--3--2--2--0--0--2--2------|
a---3-3-3-3-3-5-5-3---0-0-0-0-------------------------------|
E-----------------------------------------------------------|

e-----------------------------------------------------------|
b-----------------------------------------------------------|
g------------------------------xxxxxxxxxxxxxxxx-------------|
d---2-2-2-2-2-2-2-2---2-2-2-2--xxxxxxxxxxxxxxxx-------------|
a---3-3-3-3-5-5-3-5---0-0-0-0-------------------------------|
E-----------------------------------------------------------|


xx means dead note
This is played at a few times through the song
Related for Die For You tab