Song name
# A B C D E F G H I J K L M N O P Q R S T U V W X Y Z

Pennywise - Slowdown tab

-------------------------------------------------------------------------------
                             SLOW DOWN - Pennywise
-------------------------------------------------------------------------------

Hidden song from the album UNKNOWN ROAD

Tabbed by Ignacio (ign13@hotmail.com)

.....= palm 
mute

Intro:
e|------------|
B|------------|
G|--9--9-9-9--|   Repeat this lots of times
D|--9--9-9-9--|
A|--7--7-7-7--|
E|------------|

Verse:
[repeat lots of times] [-repeat 2x-] [end of verse]
e|-------------------|---------------|----------|
B|-------------------|---------------|----------|
G|-9-9-99-7-7-7-9-9--|--4-4-4-4-5----|-7-7-7-7--|
D|-9-9-99-7-7-7-9-9--|--4-4-4-4-5----|-7-7-7-7--|
A|-7-7-77-5-5-5-7-7--|--2-2-2-4-3----|-5-5-5-5--|
E|-------------------|---------------|----------| 
       ..       ...

Chorus
  [-------repeat 2x-------]
e|-------------------------|---------------|
B|-------------------------|---------------|
G|-5-5-5-4-4-4-------------|-4-4-4-4-5-9---|
D|-5-5-5-4-4-4-7-7-7-5-5-5-|-4-4-4-4-5-9---|
A|-3-3-3-2-2-2-7-7-7-5-5-5-|-2-2-2-2-3-7---|
E|-------------5-5-5-3-3-3-|---------------|
Tap to rate this tab
# A B C D E F G H I J K L M N O P Q R S T U V W X Y Z