Song name
# A B C D E F G H I J K L M N O P Q R S T U V W X Y Z

Pennywise - Killing Time tab

KILLING TIME - Pennywise
----------------------------------------------------------------------------------

By: IcePunk7

B-|-----------------------------------------------------------------|
G-|-----------------------------------------------------------------|
D-|-----------------------------5-5-----------------------------5-5-|
A-|-7-7-7-7-7-7-7-7-3-3-3-3-3-3-3-3-7-7-7-7-7-7-7-7-3-3-3-3-3-3-3-3-|
E-|-5-5-5-5-5-5-5-5-1-1-1-1-1-1-----5-5-5-5-5-5-5-5-1-1-1-1-1-1-----|

e-|-------------------------------------------------------------------------|
B-|-------------------------------------------------------------------------|
G-|-------------------------------------------------------------------------|
D-|-14-14-14-14-14-14-14-14-10-10-10-10-10-10-10-10-14-14-14-14-14-14-14-14-|
A-|-12-12-12-12-12-12-12-12--8--8--8--8--8--8--8--8-12-12-12-12-12-12-12-12-|
E-|-------------------------------------------------------------------------|

e-|-------------------------------------------------------------------------|
B-|-------------------------------------------------------------------------|
G-|-------------------------------------------------------------------------|
D-|-10-10-10-10-10-10-10-10-14-14-14-14-14-14-14-14-10-10-10-10-10-10-10-10-|
A-|--8--8--8--8--8--8--8--8-12-12-12-12-12-12-12-12--8--8--8--8--8--8--8--8-|
E-|-------------------------------------------------------------------------|

e-|-------------------------------------------------|
B-|-------------------------------------------------|
G-|-------------------------------------------------|
D-|-14-14-14-14-14-14-14-14-10-10-10-10-10-10-10-10-|
A-|-12-12-12-12-12-12-12-12--8--8--8--8--8--8--8--8-|
E-|-------------------------------------------------|

e-|-----------------------------------------------------------------|
B-|-----------------------------------------------------------------|
G-|-----------------------------------------------------------------|
D-|-----------------------------5-5-----------------------------5-5-|
A-|-7-7-7-7-7-7-7-7-3-3-3-3-3-3-3-3-7-7-7-7-7-7-7-7-3-3-3-3-3-3-3-3-|
E-|-5-5-5-5-5-5-5-5-1-1-1-1-1-1-----5-5-5-5-5-5-5-5-1-1-1-1-1-1-----|

e-|-----------------------------------------------------------------|
B-|-----------------------------------------------------------------|
G-|-----------------------------------------------------------------|
D-|-----------------------------5-5-----------------------------5-5-|
A-|-7-7-7-7-7-7-7-7-3-3-3-3-3-3-3-3-7-7-7-7-7-7-7-7-3-3-3-3-3-3-3-3-|
E-|-5-5-5-5-5-5-5-5-1-1-1-1-1-1-----5-5-5-5-5-5-5-5-1-1-1-1-1-1-----|

e-|------------------------------------------------------------|
B-|------------------------------------------------------------|
G-|------------------------------------------------------------|
D-|---------------------------------9-9-9-9-9-9-9-9-9-12-14-15-|
A-|-3-3-3-3-3-3-3-3-3-3-3-3-3-3-3-3-7-7-7-7-7-7-7-7-7-10-12-13-|
E-|-1-1-1-1-1-1-1-1-1-1-1-1-1-1-1-1----------------------------|

e-|---------------------------------------------------------|
B-|---------------------------------------------------------|
G-|---------------------------------------------------------|
D-|---------------------------------9-9-9-9-9-9-9-9-9-7-5-4-|
A-|-3-3-3-3-3-3-3-3-3-3-3-3-3-3-3-3-7-7-7-7-7-7-7-7-7-5-3-2-|
E-|-1-1-1-1-1-1-1-1-1-1-1-1-1-1-1-1-------------------------|

e-|-----------------------------------------------------------------|
B-|-----------------------------------------------------------------|
G-|-----------------------------------------------------------------|
D-|-----------------------------5-5-----------------------------5-5-|
A-|-7-7-7-7-7-7-7-7-3-3-3-3-3-3-3-3-7-7-7-7-7-7-7-7-3-3-3-3-3-3-3-3-|
E-|-5-5-5-5-5-5-5-5-1-1-1-1-1-1-----5-5-5-5-5-5-5-5-1-1-1-1-1-1-----|

e-|-----------------------------------------------------------------|
B-|-----------------------------------------------------------------|
G-|-----------------------------------------------------------------|
D-|-----------------------------5-5-----------------------------5-5-|
A-|-7-7-7-7-7-7-7-7-3-3-3-3-3-3-3-3-7-7-7-7-7-7-7-7-3-3-3-3-3-3-3-3-|
E-|-5-5-5-5-5-5-5-5-1-1-1-1-1-1-----5-5-5-5-5-5-5-5-1-1-1-1-1-1-----|

e-|------------------------------------------------------------|
B-|------------------------------------------------------------|
G-|------------------------------------------------------------|
D-|---------------------------------9-9-9-9-9-9-9-9-9-12-14-15-|
A-|-3-3-3-3-3-3-3-3-3-3-3-3-3-3-3-3-7-7-7-7-7-7-7-7-7-10-12-13-|
E-|-1-1-1-1-1-1-1-1-1-1-1-1-1-1-1-1----------------------------|

e-|----------------------------------------------------------------------|
B-|----------------------------------------------------------------------|
G-|----------------------------------------------------------------------|
D-|---------------------------------9-9-9-9-9-9-9-9--9-7-9-12-14-12-9-12-|
A-|-3-3-3-3-3-3-3-3-3-3-3-3-3-3-3-3-7-7-7-7-7-7-7-7--7-5-7-10-12-10-7-10-|
E-|-1-1-1-1-1-1-1-1-1-1-1-1-1-1-1-1--------------------------------------|

e-|------------------------------------------------------------|
B-|------------------------------------------------------------|
G-|------------------------------------------------------------|
D-|---------------------------------9-9-9-9-9-9-9-9-9-12-14-15-|
A-|-3-3-3-3-3-3-3-3-3-3-3-3-3-3-3-3-7-7-7-7-7-7-7-7-7-10-12-13-|
E-|-1-1-1-1-1-1-1-1-1-1-1-1-1-1-1-1----------------------------|

e-|---------------------------------------------------------|
B-|---------------------------------------------------------|
G-|---------------------------------------------------------|
D-|---------------------------------9-9-9-9-9-9-9-9-9-7-5-4-|
A-|-3-3-3-3-3-3-3-3-3-3-3-3-3-3-3-3-7-7-7-7-7-7-7-7-7-5-3-2-|
E-|-1-1-1-1-1-1-1-1-1-1-1-1-1-1-1-1-------------------------|

e-|-----------------------------------------------------------------|
B-|-----------------------------------------------------------------|
G-|-----------------------------------------------------------------|
D-|-----------------------------5-5-----------------------------5-5-|
A-|-7-7-7-7-7-7-7-7-3-3-3-3-3-3-3-3-7-7-7-7-7-7-7-7-3-3-3-3-3-3-3-3-|
E-|-5-5-5-5-5-5-5-5-1-1-1-1-1-1-----5-5-5-5-5-5-5-5-1-1-1-1-1-1-----|

e-|-----------------------------------------------------------------|
B-|-----------------------------------------------------------------|
G-|-----------------------------------------------------------------|
D-|---------------------------------5-5-5-5-5-5-5-5-7-7-7-7-9-9-9-9-|
A-|-7-7-7-7-7-7-7-7-3-3-3-3-3-3-3-3-3-3-3-3-3-3-3-3-5-5-5-5-7-7-7-7-|
E-|-5-5-5-5-5-5-5-5-1-1-1-1-1-1-1-1---------------------------------|

e-|-----------------------------------------------------------------|
B-|-----------------------------------------------------------------|
G-|-----------------------------------------------------------------|
D-|-----------------------------5-5-----------------------------5-5-|
A-|-7-7-7-7-7-7-7-7-3-3-3-3-3-3-3-3-7-7-7-7-7-7-7-7-3-3-3-3-3-3-3-3-|
E-|-5-5-5-5-5-5-5-5-1-1-1-1-1-1-----5-5-5-5-5-5-5-5-1-1-1-1-1-1-----|

e-|-----------------------------------------------------------------|
B-|-----------------------------------------------------------------|
G-|-----------------------------------------------------------------|
D-|-----------------------------5-5-----------------------------5-5-|
A-|-7-7-7-7-7-7-7-7-3-3-3-3-3-3-3-3-7-7-7-7-7-7-7-7-3-3-3-3-3-3-3-3-|
E-|-5-5-5-5-5-5-5-5-1-1-1-1-1-1-----5-5-5-5-5-5-5-5-1-1-1-1-1-1-----|

e-|-----------------------------------------------------------------|
B-|-----------------------------------------------------------------|
G-|-----------------------------------------------------------------|
D-|-----------------------------5-5-----------------------------5-5-|
A-|-7-7-7-7-7-7-7-7-3-3-3-3-3-3-3-3-7-7-7-7-7-7-7-7-3-3-3-3-3-3-3-3-|
E-|-5-5-5-5-5-5-5-5-1-1-1-1-1-1-----5-5-5-5-5-5-5-5-1-1-1-1-1-1-----|

e-|------------------------------------------------------------|
B-|------------------------------------------------------------|
G-|------------------------------------------------------------|
D-|---------------------------------9-9-9-9-9-9-9-9-9-12-14-15-|
A-|-3-3-3-3-3-3-3-3-3-3-3-3-3-3-3-3-7-7-7-7-7-7-7-7-7-10-12-13-|
E-|-1-1-1-1-1-1-1-1-1-1-1-1-1-1-1-1----------------------------|

e-|----------------------------------------------------------------------|
B-|----------------------------------------------------------------------|
G-|----------------------------------------------------------------------|
D-|---------------------------------9-9-9-9-9-9-9-9--9-7-9-12-14-12-9-12-|
A-|-3-3-3-3-3-3-3-3-3-3-3-3-3-3-3-3-7-7-7-7-7-7-7-7--7-5-7-10-12-10-7-10-|
E-|-1-1-1-1-1-1-1-1-1-1-1-1-1-1-1-1--------------------------------------|

e-|------------------------------------------------------------|
B-|------------------------------------------------------------|
G-|------------------------------------------------------------|
D-|---------------------------------9-9-9-9-9-9-9-9-9-12-14-15-|
A-|-3-3-3-3-3-3-3-3-3-3-3-3-3-3-3-3-7-7-7-7-7-7-7-7-7-10-12-13-|
E-|-1-1-1-1-1-1-1-1-1-1-1-1-1-1-1-1----------------------------|

e-|---------------------------------------------------------|
B-|---------------------------------------------------------|
G-|---------------------------------------------------------|
D-|---------------------------------9-9-9-9-9-9-9-9-9-7-5-4-|
A-|-3-3-3-3-3-3-3-3-3-3-3-3-3-3-3-3-7-7-7-7-7-7-7-7-7-5-3-2-|
E-|-1-1-1-1-1-1-1-1-1-1-1-1-1-1-1-1-------------------------|

e-|-------------------------------------------------------------------------|
B-|-------------------------------------------------------------------------|
G-|-------------------------------------------------------------------------|
D-|-----------------------------5-5---------------------------------9-9-9-9-|
A-|-7-7-7-7-7-7-7-7-3-3-3-3-3-3-3-3-7-7-7-7-7-7-7-7-3-3-3-3-3-3-3-3-7-7-7-7-|
E-|-5-5-5-5-5-5-5-5-1-1-1-1-1-1-----5-5-5-5-5-5-5-5-1-1-1-1-1-1-1-1---------|

e-|-----------------|-------------------------------------------------|
B-|-----------------|-------------------------------------------------|
G-|-----------------|-------------------------------------------------|
D-|-9-9-9-9-9-7-5-4-|-----------------5-5-5-5-5-5-5-5-----------------|
A-|-7-7-7-7-7-5-3-2-|-7-7-7-7-7-7-7-7-3-3-3-3-3-3-3-3-3-3-3-3-3-3-3-3-|
E-|-----------------|-5-5-5-5-5-5-5-5-----------------1-1-1-1-1-1-1-1-|

e-|------------------------------------------------------------------|
B-|------------------------------------------------------------------|
G-|------------------------------------------------------------------|
D-|-7-7-7-7-9-9-9-9------------------5-5-5-5-5-5-5-5-----------------|
A-|-5-5-5-5-7-7-7-7--5-5-5-5-5-5-5-5-3-3-3-3-3-3-3-3-3-3-3-3-3-3-3-3-|
E-|------------------3-3-3-3-3-3-3-3-----------------1-1-1-1-1-1-1-1-|

e-|-----------------|
B-|-----------------|
G-|-----------------|
D-|-7-7-7-7-9-9-9-9-|
A-|-5-5-5-5-7-7-7-7-|
E-|-----------------|

e-|-----------------------------------------------------------------|
B-|-----------------------------------------------------------------|
G-|-----------------------------------------------------------------|
D-|-----------------------------5-5-----------------------------5-5-|
A-|-7-7-7-7-7-7-7-7-3-3-3-3-3-3-3-3-7-7-7-7-7-7-7-7-3-3-3-3-3-3-3-3-|
E-|-5-5-5-5-5-5-5-5-1-1-1-1-1-1-----5-5-5-5-5-5-5-5-1-1-1-1-1-1-----|

e-|-----------------------------------------------------------------|
B-|-----------------------------------------------------------------|
G-|-----------------------------------------------------------------|
D-|---------------------------------5-5-5-5-5-5-5-5-7-7-7-7-9-9-9-9-|
A-|-7-7-7-7-7-7-7-7-3-3-3-3-3-3-3-3-3-3-3-3-3-3-3-3-5-5-5-5-7-7-7-7-|
E-|-5-5-5-5-5-5-5-5-1-1-1-1-1-1-1-1---------------------------------|

e-|-----------------------------------------------------------------|
B-|-----------------------------------------------------------------|
G-|-----------------------------------------------------------------|
D-|-----------------------------5-5-----------------------------5-5-|
A-|-7-7-7-7-7-7-7-7-3-3-3-3-3-3-3-3-7-7-7-7-7-7-7-7-3-3-3-3-3-3-3-3-|
E-|-5-5-5-5-5-5-5-5-1-1-1-1-1-1-----5-5-5-5-5-5-5-5-1-1-1-1-1-1-----|

e-|-------------------------------------------------------------------|
B-|-------------------------------------------------------------------|
G-|-------------------------------------------------------------------|
D-|-----------------------------5-5-----------------------------5-5---|
A-|-7-7-7-7-7-7-7-7-3-3-3-3-3-3-3-3-7-7-7-7-7-7-7-7-3-3-3-3-3-3-3-3-7-|
E-|-5-5-5-5-5-5-5-5-1-1-1-1-1-1-----5-5-5-5-5-5-5-5-1-1-1-1-1-1-----5-|
Tap to rate this tab
# A B C D E F G H I J K L M N O P Q R S T U V W X Y Z