Song name
# A B C D E F G H I J K L M N O P Q R S T U V W X Y Z

Pennywise - Same Old Story drum

Album: About Time
 

C|x---------------|----------------|
H|--x-x-x-x-x-x-x-|x-x-x-x-x-x-x-x-|
S|----o-------o---|----o-------o---|
t|----------------|----------------| 
T|----------------|----------------|
B|o-----o-o-----o-|o-----o---o---o-|

C|----------------|----------------|
H|x-x-x-x-x-x-x-x-|x-x-x-x-x-x-x-x-|
S|----o-------o---|----o-------o---|
t|----------------|----------------|
T|----------------|----------------|
B|o-----o-o-----o-|o-----o---o---o-|

C|----------------|----------------|
H|x-x-x-x-x-x-x-x-|x-x-x-x-x-x-x-x-|
S|----o-------o---|----o-------o-o-|
t|----------------|----------------|
T|----------------|----------------|
B|o-----o-o-----o-|o-----o---o-----|

C|x---------------|----------------|
H|--x-x-x-x-x-x-x-|x-x-x-----------|
S|----o--o----o---|----o-oo-oo-----|
t|----------------|-----------oo---|
T|----------------|-------------oo-|
B|o-------o-o---o-|--o-------------|

|-----------PLAY-2-TIMES----------|
C|----------------|----------------|
H|x-x-x-x-x-x-x-x-|x-x-x-x-x-x-x-x-|
S|----o-------o---|----o-------o-o-|
t|----------------|----------------|
T|----------------|----------------|
B|o-----o-o-----o-|o-----o---o-----|

C|----------------|------------|
H|x-x-x-x-x-x-x-x-|x-x-x-x-x-x-|
S|----o-------o---|----o-------|
t|----------------|------------|
T|----------------|------------|
B|o-----o-o-----o-|o-----o---o-|

C|x-------------x-|----------------|
H|--x-x-x-x-x-x---|x-x-x-----------|
S|----o--o----o---|----o-oo-oo-----|
t|----------------|-----------oo---|
T|----------------|-------------oo-|
B|o-------o-o---o-|--o-------------|

 |-----------PLAY-2-TIMES----------|
C|----------------|----------------|
H|x-x-x-x-x-x-x-x-|x-x-x-x-x-x-x-x-|
S|----o-------o---|----o-------o-o-|
t|----------------|----------------|
T|----------------|----------------|
B|o-----o-o-----o-|o-----o---o-----|

C|----------------|------------|
H|x-x-x-x-x-x-x-x-|x-x-x-x-x-x-|
S|----o-------o---|----o-------|
t|----------------|------------|
T|----------------|------------|
B|o-----o-o-----o-|o-----o---o-|

C|x---------------|----------------|
H|--x-x-x-x-x-x-x-|x-x-x-----------|
S|----o--o----o---|----o-oo-oo-----|
t|----------------|-----------oo---|
T|----------------|-------------oo-|
B|o-------o-o---o-|--o-------------|





Chorus, "I'm not cut from the same mold"
C|x---------------|x-------------x-|
R|--x-x-x-x-x-x-x-|--x-x-x-x-x-x---| The Chorus is
S|----o-------o---|----o-------o---| with the ride.
t|----------------|----------------| Make sure you
T|----------------|----------------| catch those.
B|o-----o-o-------|o--o--o-o-----o-|

C|x-------------x-|------x-x-x-----|
R|--x-x-x-x-x-x---|x-x-x-------x-x-|
S|----o-------o---|----o-------o---|
t|----------------|----------------|
T|----------------|----------------|
B|o-----o-o-----o-|------o-o-o---o-|

C|--------------x-|--------------x-|
R|x-x-x-x-x-x-x---|x-x-x-x-x-x-x---|
S|----o-------o---|----o-------o---|
t|----------------|----------------|
T|----------------|----------------|
B|o-----o---o---o-|o-------o--o--o-|

C|x---------------|----------------|
H|--x-x-x-x-x-x-x-|x-x-x-x-x-x-x-x-|
S|----o--o------o-|----o-----o---o-| Back to 
t|----------------|----------------| high hat
T|----------------|----------------|
B|o-------o-o-----|o-o---o-o---o---|

C|x---------------|x-------------x-|
R|--x-x-x-x-x-x-x-|--x-x-x-x-x-x---| 
S|----o-------o---|----o-------o---| Back to
t|----------------|----------------| ride
T|----------------|----------------| 
B|o-----o-o-------|o--o--o-o-----o-|





C|x-------------x-|------x-x-x-----|
R|--x-x-x-x-x-x---|x-x-x-------x-x-|
S|----o-------o---|----o-------o---|
t|----------------|----------------|
T|----------------|----------------|
B|o-----o-o-----o-|------o-o-o---o-|

C|--------------x-|--------------x-|
R|x-x-x-x-x-x-x---|x-x-x-x-x-x-x---|
S|----o-------o---|----o-------o---|
t|----------------|----------------|
T|----------------|----------------|
B|o-----o---o---o-|o-------o--o--o-|

C|x---------------|----------------|
H|--x-x-x-x-x-x-x-|x-x-x-x-x-x-x-x-|
S|----o--o------o-|----o-----o---o-| Back to 
t|----------------|----------------| high hat
T|----------------|----------------|
B|o-------o-o-----|o-o---o-o---o---|

 |-----------PLAY-2-TIMES----------|
C|----------------|----------------|
H|x-x-x-x-x-x-x-x-|x-x-x-x-x-x-x-x-|
S|----o-------o---|----o-------o---|
t|----------------|----------------|
T|----------------|----------------|
B|o-----o-o-----o-|o-----o---o---o-|

C|----------------|------------|
H|x-x-x-x-x-x-x-x-|x-x-x-x-x-x-|
S|----o-------o---|----o-------|
t|----------------|------------|
T|----------------|------------|
B|o-----o-o-----o-|o-----o---o-|





C|x---------------|----------------|
H|--x-x-x-x-x-x-x-|x-x-x-----------|
S|----o--o----o---|----o-oo-oo-----|
t|----------------|-----------oo---|
T|----------------|-------------oo-|
B|o-------o-o---o-|--o-------------|

|-----------PLAY-2-TIMES----------|
C|----------------|----------------|
H|x-x-x-x-x-x-x-x-|x-x-x-x-x-x-x-x-|
S|----o-------o---|----o-------o-o-|
t|----------------|----------------|
T|----------------|----------------|
B|o-----o-o-----o-|o-----o---o-----|

C|----------------|------------|
H|x-x-x-x-x-x-x-x-|x-x-x-x-x-x-|
S|----o-------o---|----o-------|
t|----------------|------------|
T|----------------|------------|
B|o-----o-o-----o-|o-----o---o-|

C|x-------------x-|----------------|
H|--x-x-x-x-x-x---|x-x-x-----------|
S|----o--o----o---|----o-oo-oo-----|
t|----------------|-----------oo---|
T|----------------|-------------oo-|
B|o-------o-o---o-|--o-------------|

Chorus, "I'm not cut from the same mold"
C|x---------------|x-------------x-|
R|--x-x-x-x-x-x-x-|--x-x-x-x-x-x---| The Chorus is
S|----o-------o---|----o-------o---| with the ride.
t|----------------|----------------| Make sure you
T|----------------|----------------| catch those.
B|o-----o-o-------|o--o--o-o-----o-|

C|x-------------x-|------x-x-x-----|
R|--x-x-x-x-x-x---|x-x-x-------x-x-|
S|----o-------o---|----o-------o---|
t|----------------|----------------|
T|----------------|----------------|
B|o-----o-o-----o-|------o-o-o---o-|

C|--------------x-|--------------x-|
R|x-x-x-x-x-x-x---|x-x-x-x-x-x-x---|
S|----o-------o---|----o-------o---|
t|----------------|----------------|
T|----------------|----------------|
B|o-----o---o---o-|o-------o--o--o-|

C|x---------------|----------------|
H|--x-x-x-x-x-x-x-|x-x-x-x-x-x-x-x-|
S|----o--o------o-|----o-----o---o-| Back to 
t|----------------|----------------| high hat
T|----------------|----------------|
B|o-------o-o-----|o-o---o-o---o---|

C|x---------------|x-------------x-|
R|--x-x-x-x-x-x-x-|--x-x-x-x-x-x---| 
S|----o-------o---|----o-------o---| Back to
t|----------------|----------------| ride
T|----------------|----------------| 
B|o-----o-o-------|o--o--o-o-----o-|

C|x-------------x-|------x-x-x-----|
R|--x-x-x-x-x-x---|x-x-x-------x-x-|
S|----o-------o---|----o-------o---|
t|----------------|----------------|
T|----------------|----------------|
B|o-----o-o-----o-|------o-o-o---o-|

C|--------------x-|--------------x-|
R|x-x-x-x-x-x-x---|x-x-x-x-x-x-x---|
S|----o-------o---|----o-------o---|
t|----------------|----------------|
T|----------------|----------------|
B|o-----o---o---o-|o-------o--o--o-|




C|x---------------|----------------|
H|--x-x-x-x-x-x-x-|x-x-x-x-x-x-x-x-|
S|----o--o------o-|----o-----o---o-| Back to 
t|----------------|----------------| high hat
T|----------------|----------------|
B|o-------o-o-----|o-o---o-o---o---|

C|----------------|----------------|
H|x-x-x-x-x-x-x-x-|x-x-x-x-x-x-x-x-|
S|o---o---o---o---|o---o---o---o---|
t|----------------|----------------|
T|----------------|----------------|
B|--o---o---o---o-|--o---o---o---o-|

C|x---------------|----------------|
H|--x-x-x-x-x-x-x-|x-x-x-x-x-x-x-x-|
S|----o--o------o-|------o--o----o-|
t|----------------|----------------|
T|----------------|----------------|
B|o-------o-o-----|o---o-----o-o---|

C|----------------|----------------|
H|x-x-x-x-x-x-x-x-|x-x-x-x-x-x-x-x-|
S|o---o---o---o---|o---o---o---o---|
t|----------------|----------------|
T|----------------|----------------|
B|--o---o---o---o-|--o---o---o---o-|

C|x---------------|----------------|
H|--x-x-x-x-x-x-x-|x-x-x-x-x-x-x-x-|
S|----o--o------o-|------o--o----o-|
t|----------------|----------------|
T|----------------|----------------|
B|o-------o-o-----|o---o-----o-o---|






C|----------------|----------------|
H|x-x-x-x-x-x-x-x-|x-x-x-x-x-x-x-x-|
S|o---o---o---o---|o---o---o---o---|
t|----------------|----------------|
T|----------------|----------------|
B|--o---o---o---o-|--o---o---o---o-|

C|x---------------|----------------|
H|--x-x-x-x-x-x-x-|x-x-x-x-x-x-x-x-|
S|----o--o------o-|------o--o----o-|
t|----------------|----------------|
T|----------------|----------------|
B|o-------o-o-----|o---o-----o-o---|

C|----------------|----------------|
H|x-x-x-x-x-x-x-x-|x-x-x-x-x-x-x-x-|
S|o---o---o---o---|o---o---o---o---|
t|----------------|----------------|
T|----------------|----------------|
B|--o---o---o---o-|--o---o---o---o-|

C|x---------------|----------------|
H|--x-x-x-x-x-x-x-|x-x-x-x-x-x-x-x-|
S|----o--o------o-|------o--o----o-|
t|----------------|----------------|
T|----------------|----------------|
B|o-------o-o-----|o---o-----o-o---|

C|----------------|----------------|
H|x-x-x-x-x-x-x-x-|x-x-x-x-x-x-x-x-|
S|o---o---o---o---|o---o---o-o-o-o-|
t|----------------|----------------|
T|----------------|----------------|
B|--o---o---o---o-|--o---o---o---o-|






C|x---------------|----------------|
H|--x-x-x-x-x-x-x-|x-x-x-x-x-x-x-x-|
S|----o--o------o-|------o--o----o-|
t|----------------|----------------|
T|----------------|----------------|
B|o-------o-o-----|o---o-----o-o---|

C|----------------|-----------------|
H|x-x-x-x-x-x-x-x-|x-x-x-x-x-x-x-x-x|
S|o---o---o---o---|o-----o-----o---o|
t|----------------|-----------------|
T|----------------|-----------------|
B|--o---o---o---o-|--o-o---o-o---o--|

 |-----------PLAY-2-TIMES----------|
C|----------------|----------------|
H|x-x-x-x-x-x-x-x-|x-x-x-x-x-x-x-x-|
S|----o-------o---|----o-------o-o-|
t|----------------|----------------|
T|----------------|----------------|
B|o-----o-o-----o-|o-----o---o-----|

C|----------------|------------|
H|x-x-x-x-x-x-x-x-|x-x-x-x-x-x-|
S|----o-------o---|----o-------|
t|----------------|------------|
T|----------------|------------|
B|o-----o-o-----o-|o-----o---o-|

C|x-------------x-|----------------|
H|--x-x-x-x-x-x---|x-x-x-----------|
S|----o--o----o---|----o-oo-oooooo-|
t|----------------|----------------|
T|----------------|----------------|
B|o-------o-o---o-|--o-------------|



Chorus, "I'm not cut from the same mold"
C|x---------------|x-------------x-|
R|--x-x-x-x-x-x-x-|--x-x-x-x-x-x---| The Chorus is
S|----o-------o---|----o-------o---| with the ride.
t|----------------|----------------| Make sure you
T|----------------|----------------| catch those.
B|o-----o-o-------|o--o--o-o-----o-|

C|x-------------x-|------x-x-x-----|
R|--x-x-x-x-x-x---|x-x-x-------x-x-|
S|----o-------o---|----o-------o---|
t|----------------|----------------|
T|----------------|----------------|
B|o-----o-o-----o-|------o-o-o---o-|

C|--------------x-|--------------x-|
R|x-x-x-x-x-x-x---|x-x-x-x-x-x-x---|
S|----o-------o---|----o-------o---|
t|----------------|----------------|
T|----------------|----------------|
B|o-----o---o---o-|o-------o--o--o-|

C|x---------------|----------------|
H|--x-x-x-x-x-x-x-|x-x-x-x-x-x-x-x-|
S|----o--o------o-|----o-----o---o-| Back to 
t|----------------|----------------| high hat
T|----------------|----------------|
B|o-------o-o-----|o-o---o-o---o---|

C|x---------------|x-------------x-|
R|--x-x-x-x-x-x-x-|--x-x-x-x-x-x---| 
S|----o-------o---|----o-------o---| Back to
t|----------------|----------------| ride
T|----------------|----------------| 
B|o-----o-o-------|o--o--o-o-----o-|

C|x-------------x-|------x-x-x-----|
R|--x-x-x-x-x-x---|x-x-x-------x-x-|
S|----o-------o---|----o-------o---|
t|----------------|----------------|
T|----------------|----------------|
B|o-----o-o-----o-|------o-o-o---o-|

C|--------------x-|--------------x-|
R|x-x-x-x-x-x-x---|x-x-x-x-x-x-x---|
S|----o-------o---|----o-------o---|
t|----------------|----------------|
T|----------------|----------------|
B|o-----o---o---o-|o-------o--o--o-|

C|----------------|--------------x-|
H|----------------|----------------|
S|o-o-o-o-o-o-o-o-|o-o-------------|
t|----------------|----------------|
T|----------------|----------------|
B|o-o-o-o-o-o-o-o-|o-o-----------o-|
	
Tap to rate this tab
# A B C D E F G H I J K L M N O P Q R S T U V W X Y Z