Song name
# A B C D E F G H I J K L M N O P Q R S T U V W X Y Z

Pennywise - Stand By Me tab

Song: Stand By Me (Solo)♪♪♪
Artist: Pennywise
Tabbed by: Giuseppe 83

First of all: Tanks to my Love. (I'm in love, wath can I do??)

I found on the web only *.crd and *.tab files that miss this part,
but I like so much this solo, so I tryed to tab it by myself.
In the song version I listen, this part is played by strings.
I use to play this part with a little of overdrive...



e|------------------------------------------------------------|
b|--10-10--12--14-14-12---10-10-9--------9--------------------|
g|--------------------------------11-11----11--11~~-----------|
D|------------------------------------------------------------|
A|------------------------------------------------------------|
E|------------------------------------------------------------|

e|------------------------------------------------------------|
b|--9-10------------------------------------------------------|
g|------11--------------------------13--14--------------------|
D|---------12-12---11-12-14-14---14---------------------------|
A|------------------------------------------------------------|
E|------------------------------------------------------------|

e|------------------16--17--19-17-16-16--17-16--14-14~~16-14--|
b|---------------17~------------------------------------------|
g|--14-14--16-18----------------------------------------------|
D|------------------------------------------------------------|
A|------------------------------------------------------------|
E|------------------------------------------------------------|

e|--14-16-14------------19--17--------------------------------|
b|------------15-15~-----------17-17~---12--14~~--------------|
g|------------------------------------------------------------|
D|------------------------------------------------------------|
A|------------------------------------------------------------|
E|------------------------------------------------------------|

Thank for every comment.
Rock On.
Tap to rate this tab
# A B C D E F G H I J K L M N O P Q R S T U V W X Y Z