Song name
# A B C D E F G H I J K L M N O P Q R S T U V W X Y Z

Pennywise - Well Never Know tab

Artist: Pennywise
Song: We'll Never Know (Intro)
Album: Reason To Believe (2008)

Play this in Standard Tuning!

This is the basic riff played throughout the whole song. Play around with this you find 
right rhythm. I'm pretty sure its right.

e-------------------------------------------------------------------|
b-------------------------------------------------------------------|
g-----------------------3-3-3-3-3-3-3-3-3-3-3-----------------------|
d-5-5-5-5-5-5-5-5-5-5-5-3-3-3-3-3-3-3-3-3-3-3-3-3-3-3-3-3-3-3-3-3-3-|
a-5-5-5-5-5-5-5-5-5-5-5-1-1-1-1-1-1-1-1-1-1-1-3-3-3-3-3-3-3-3-3-3-3-|
e-3-3-3-3-3-3-3-3-3-3-3-----------------------1-1-1-1-1-1-1-1-1-1-1-|

e-------------------------|
b-------------------------|
g-------------------3-----|
d-5-5-5-5-5-5-5-5-3-3-3-5-|
a-5-5-5-5-5-5-5-5-3-1-3-5-|
e-3-3-3-3-3-3-3-3-1---1-3-|


Also one of the guitars plays something like this during the intro.

e-3-3-3-3-6-6-6-6------------|
b--3-3-3-3-6-6-6-6-----------|
g----------------------------|
d----------------------------|
a----------------------------|
e----------------------------|

Enjoy!

For questions, comments or violent insults:
willzilla17@yahoo.com
Tap to rate this tab
 
# A B C D E F G H I J K L M N O P Q R S T U V W X Y Z