Guitaretab - guitar tabs
Song name
# A B C D E F G H I J K L M N O P Q R S T U V W X Y Z

Pennywise - Bro Hymn tab

Not much to say Really this is a real easy song its like 4 differnt chords and make sure 
use a lot of distortion so yeah...enjoy my tab and please rate it :D if you have any questions
email me @ bluenova_350@hotmail.com btw this isnt the tribute its the normal bro hymn

Tuning: Standard

.. = PM
/ = slide
~ = let ring

Intro(Done On Bass,Tabbed For Guitar)

e|------------------------------------------------------------------------|
B|------------------------------------------------------------------------|
G|------------------------------------------------------------------------|
D|------------------------------------------------------------------------|x3
A|-5-5-5-5-5-5-5-5-8-7-3-3-3-3-3-3-3-3-3-8-8-8-8-8-3-3-3-8-7-5-5-5-5-5-5-5|
E|------------------------------------------------------------------------|

Intro Pt 2

ok for this part you hear a guitar kind of playing its just sliding,do it on the third time
of the bass line
[ Tab from: http://www.guitaretab.com/p/pennywise/22462.html ]
e|------------------------------------------------|
B|------------------------------------------------|
G|-/7/-10/-9/-5/-10/-5/-10/-9/-7------------------|
D|-/x/--x--x/-x/--x/-x/--x/-x/-x------------------|
A|-/5/--8/-7/-3/--8/-3/--8/-7/-5------------------|
E|-------------------------------pickslide>>>-----|

Chorus

e|------------------------------------------------------------------|
B|------------------------------------------------------------------|
G|-7777777777-10-9-5555555555555-1010101010-555-10-9-77777777777777-|
D|-7777777777-10-9-5555555555555-1010101010-555-10-9-77777777777777-|x2
A|-5555555555--8-7-3333333333333--8-8-8-8-8-333--8-7-55555555555555-|
E|------------------------------------------------------------------|

Verse

e|------------------------------------------------------------------|
B|------------------------------------------------------------------|
G|-7777777777-10-9-5555555555555-1010101010-555-10-9-77777777777777-|
D|-7777777777-10-9-5555555555555-1010101010-555-10-9-77777777777777-|x2
A|-5555555555--8-7-3333333333333--8-8-8-8-8-333--8-7-55555555555555-|
E|------------------------------------------------------------------|
PM  .........       ............    . . . .  ..       .............

on the second time play the end of the verse freely not palm muted

End

e|---------------|
B|---------------|
G|-7~-7-pause-7/-|
D|-7~-7-------7/-|
A|-5~-5-------5/-|
E|---------------|

Song Order

Intro(Bass)
Intro Pt 2
Chorus
Verse
Chorus
Verse
Chorus
Verse
Chorus
End
Related for Bro Hymn tab
×
Bro Hymn