Guitaretab - guitar tabs
Song name
# A B C D E F G H I J K L M N O P Q R S T U V W X Y Z

Pennywise - Alien tab

/ = Slide Down
Pm = Palm Mute
~ = Hold

Riff 1: Intro

e|--------------------------------------------------------------------------|
B|--------------------------------------------------------------------------|
G|-----14-12-8-8-14-15------------------------------------------------------|
D|-5-5-14-12-8-8-14-15------------------------------------------------------|
A|-5-5-12-10-6-6-12-13------------------------------------------------------|
E|-3-3----------------------------------------------------------------------|

Riff 2: Verse                        Riff 3: Verse Part 2

e|--------------------------------------|-----------------------------------|
B|--------------------------------------|-----------------------------------|
G|----------7-7-7-7-8-8-8-8-------------|----------7-7-7-7-8-8-8-8----------|
D|--5-5-5-5-7-7-7-7-8-8-8-8-8-8-8-8-----|--5-5-5-5-7-7-7-7-8-8-8-8-8/-------|
A|--5-5-5-5-5-5-5-5-6-6-6-6-8-8-8-8-----|--5-5-5-5-5-5-5-5-6-6-6-6-8/-------|
E|--3-3-3-3-----------------6-6-6-6-----|--3-3-3-3-----------------6/-------|

Riff 4: Verse Part 3 All Pm         Riff 5: Verse Part 4 All Pm

e|--------------------------------------|-----------------------------------|
B|--------------------------------------|-----------------------------------|
G|----------7-7-7-7-8-8-8-8-------------|----------7-7-7-7-8-8-8-8----------|
D|--5-5-5-5-7-7-7-7-8-8-8-8-8-8-8-8-----|--5-5-5-5-7-7-7-7-8-8-8-8-8-7-8-7--|
A|--5-5-5-5-5-5-5-5-6-6-6-6-8-8-8-8-----|--5-5-5-5-5-5-5-5-6-6-6-6-8-7-8-7--|
E|--3-3-3-3-----------------6-6-6-6-----|--3-3-3-3-----------------6-5-6-5--|

Riff 6: Chorus

e|--------------------------------------------------------------------------|
B|--------------------------------------------------------------------------|
G|-8-8-8-8-8-8-8-8-10-10-10-10-10-10-10-10-7-7-7-7-7-7-7-7------------------|
D|-8-8-8-8-8-8-8-8-10-10-10-10-10-10-10-10-7-7-7-7-7-7-7-7-5-5-5-5-5-5-5-5--|
A|-6-6-6-6-6-6-6-6--8--8--8--8--8--8--8--8-5-5-5-5-5-5-5-5-5-5-5-5-5-5-5-5--|
E|---------------------------------------------------------3-3-3-3-3-3-3-3--|

Riff 7: Chorus Part 2
[ Tab from: http://www.guitaretab.com/p/pennywise/23314.html ]
e|--------------------------------------------------------------------------|
B|--------------------------------------------------------------------------|
G|-8-8-8-8-8-8-8-8-10-10-10-10-10-10-10-10-7-7-7-7-7-7-7-7------------------|
D|-8-8-8-8-8-8-8-8-10-10-10-10-10-10-10-10-7-7-7-7-7-7-7-7-5----------------|
A|-6-6-6-6-6-6-6-6--8--8--8--8--8--8--8--8-5-5-5-5-5-5-5-5-5-----p-a-u-s-e--|
E|---------------------------------------------------------3----------------|

Solo:

e|--------------------------------------------------------------------------|
B|----------------------------------------------15--------------------------|
G|-12----12----12-15-14----12----12----12-15-14----12----12----12-15-14-----|
D|----12----12----------15----12----12----------------12----12----------15--|
A|--------------------------------------------------------------------------|
E|--------------------------------------------------------------------------|

Solo Continued:

e|--------------------------------------------------------------------------|
B|-13----------13-----------------------------------------------------------|
G|----15-14-15----15-14-15-12~----------------------------------------------|
D|--------------------------------------------------------------------------|
A|--------------------------------------------------------------------------|
E|--------------------------------------------------------------------------|

Riff 8: Outro

e|--------------------------------------------------------------------------|
B|--------------------------------------------------------------------------|
G|-----------------8-8-8-8-8-8-8-8------------------------------------------|
D|-5-5-5-5-5-5-5-5-8-8-8-8-8-8-8-8------------------------------------------|
A|-5-5-5-5-5-5-5-5-6-6-6-6-6-6-6-6------------------------------------------|
E|-3-3-3-3-3-3-3-3----------------------------------------------------------|

Structure

Riff 1 x4
Riff 2 + Riff 3 x2
Riff 4 + Riff 5 x2
Riff 2 + Riff 3 x2
Riff 6 x3
Riff 7
Riff 1 x4
Riff 4 + Riff 5 x2
Riff 2 + Riff 3 x2
Riff 6 x3
Riff 7
Solo
Pause
Riff 4 + Riff 5 x2
Riff 6 x3
Riff 8
Related for Alien tab
Advertisement will be closed in 10 seconds