Song name
# A B C D E F G H I J K L M N O P Q R S T U V W X Y Z

Pennywise - F*** Athourity tab

Intro X 2
|-------------------------------------------------------------------------------------------
|-------------------------------------------------------------------------------------------
|-------------------------------------------------------------------------------------------
|---------------------5-3-3-3-3-3-3-3-3-3-3-2---------------------5---------------------8-10
|-5-5-5-5-5-5-5-5-5-5-3-1-1-1-1-1-1-1-1-1-1-0-3-3-3-3-3-3-3-3-3-3-3-5-5-5-5-5-5-5-5-5-5-6-8-
|-3-3-3-3-3-3-3-3-3-3-------------------------1-1-1-1-1-1-1-1-1-1---3-3-3-3-3-3-3-3-3-3-----
 Verse x 4  Palm Mute Verses
|--------------------------------------------------------------------------------|-----
|--------------------------------------------------------------------------------|-----
|--------------------------------------------------------------------------------|-----
|---------------------3-3-3-3-3-3-3-3-3-3----------------------------------------|-8-10===
|-5-5-5-5-5-5-5-5-5-5-1-1-1-1-1-1-1-1-1-1-3-3-3-3-3-3-3-3-3-3-5-5-5-5-5-5-5-5-5-5|-6-8-only
|-3-3-3-3-3-3-3-3-3-3---------------------1-1-1-1-1-1-1-1-1-1-3-3-3-3-3-3-3-3-3-3|-----1st
                                                                                       Time
Pre Verse No Palm Mute
|--------------------------------------------------------------------------------
|--------------------------------------------------------------------------------
|--------------------------------------------------------------------------------
|---------------------3-3-3-3-3-3-3-3-3-3-5-5-5-5-5-5-5-5-5-5--------------------
|-5-5-5-5-5-5-5-5-5-5-1-1-1-1-1-1-1-1-1-1-3-3-3-3-3-3-3-3-3-3-3-3-3-3-3-3-3-3-3-3
|-3-3-3-3-3-3-3-3-3-3-----------------------------------------1-1-1-1-1-1-1-1-1-1

|---------------------------------------------------------------
|---------------------------------------------------------------
|---------------------------------------------------------------
|---------------------3-3-3-3-3-3-3-3-3-3-5-5-5-5-5-5-5-5-5-5---
|-5-5-5-5-5-5-5-5-5-5-1-1-1-1-1-1-1-1-1-1-3-3-3-3-3-3-3-3-3-3-3-
|-3-3-3-3-3-3-3-3-3-3-----------------------------------------1-
                                          ........PM.........

Chorus
|---------------------------------------------------------------------------------
|---------------------------------------------------------------------------------
|---------------------------------------------------------------------------------
|---------------------8-8-8-8-8-8-8-8-8-8---------------------10-10-10-10-10-10-10
|-5-5-5-5-5-5-5-5-5-5-6-6-6-6-6-6-6-6-6-6-8-8-8-8-8-8-8-8-8-8-8--8--8--8--8--8--8-
|-3-3-3-3-3-3-3-3-3-3---------------------6-6-6-6-6-6-6-6-6-6---------------------

|---------------------------------------------------------------
|---------------------------------------------------------------
|---------------------------------------------------------------
|---------------------8-8-8-8-8-8-8-8-8-8---------------------10
|-5-5-5-5-5-5-5-5-5-5-6-6-6-6-6-6-6-6-6-6-8-8-8-8-8-8-8-8-8-8-8-
|-3-3-3-3-3-3-3-3-3-3---------------------6-6-6-6-6-6-6-6-6-6---
                                          .......PM..........

 Bridge intro               | Bridge
|---------------------------|-----------------------------------------------
|---------------------------|-----------------------------------------------
|---------------------------|-----------------------------------------------
|-12-12-12-12-12-12-12-12-12|-10-10-10-10-10-10-10-10-10--------------------
|-10-10-10-10-10-10-10-10-10|-8--8--8--8--8--8--8--8--8--8-8-8-8-8-8-8-8-8-8
|---------------------------|----------------------------6-6-6-6-6-6-6-6-6-6

|-----------------------------------------------
|-----------------------------------------------
|-----------------------------------------------
|-5-5-5-5-5-5-5-5-5-5---------------------------  
|-3-3-3-3-3-3-3-3-3-3-5-5-5-5-5-5-5-5-5-5-------   
|---------------------3-3-3-3-3-3-3-3-3-3-------
Tap to rate this tab
 
# A B C D E F G H I J K L M N O P Q R S T U V W X Y Z