Song name
# A B C D E F G H I J K L M N O P Q R S T U V W X Y Z

Pennywise - No Reason Why tab

e-------------------------------------------------------------------| THAT IS THE FIRST
B-------1----------1-------1------3-3-3-0-0-5-0-------1----------1-1| PART OF THE INTRO
G-----2-----2--2--0------2-----2--------------------2-----2--2--0--0| CLEAN
D---2------2--2--2-----2------2-------------------2------2--2--2---2|
A-0-------0--0--3----0-------0------------------0-------0--0--3----3|
E-------------------------------------------------------------------|
X=MUTED ^=PAUSE <<<=PICKSLIDE /=SLIDE
THEN THE SECOND PART OF THE INTRO(DISTORTED)
e------------------|--------------------------------------------------
B------------------|--------------------------------------------------
G-12-12-12-12-12-12|7-7-7-7-7-7-7-------------7-7-7-7-7-7-7-9-9-910-12-7-7-7-7-7-7-7
D-12-12-12-12-12-12|7-7-7-7-7-7-7-------------7-7-7-7-7-7-7-9-9-910-12-7-7-7-7-7-7-7
A-10-10-10-10-10-10|5-5-5-5-5-5-5-8-8-8-7-7/3-5-5-5-5-5-5-5-7-7-7-8-10-5-5-5-5-5-5-5
E----XX-XX-----X---|--X-X-X-X-X-X---------------X-X-X-X-X-X---X-X--------X-X-X-X-X-X

e-------------------------------------------------|
B-------------------------------------------------|
G-------------7-7-7-7-7-7-7----------------5------|
D-------------7-7-7-7-7-7-7----------------5------|
A-8-8-8-7-7/3-5-5-5-5-5-5-5-7-7-7-7-8-8\10-3-<<<<<|
E---------------X-X-X-X-X-X-----------------------|

THIRD PART OF INTRO ALSO DISTORTED:
e---------------------------------------------------------------------------------
B---------------------------------------------------------------------------------
G-77----------------------------------55-10-9-77-------------10-10-10-5-5-10-9-9-7
D-77----------77---------1010---------55-10-9-77----------77-10-10-10-5-5-10-9-9-7
A-55^^^^^^^^^^77^^^^^^^^^^88^^^^^^^^^^33--8-7-55^^^^^^^^^^77--8--8--8-3-3--8-7-7-5
E-------------55------------------------------------------55----------------------

VERSE:
e----------------------------------------------------------------|
B----------------------------------------------------------------|
G-7-7-7-7-7-7-7---------------10-10-10-10-10-10-10-5-5-5-10-9-9-7|
D-7-7-7-7-7-7-7-7-7-7-7-7-7-7-10-10-10-10-10-10-10-5-5-5-10-9-9-7|
A-5-5-5-5-5-5-5-7-7-7-7-7-7-7--8--8--8--8--8--8--8-3-3-3--8-7-7-5|
E---------------5-5-5-5-5-5-5------------------------------------|

CHORUS:
e---------------------------------------------------|
B---------------------------------------------------|
G-7-7-7-9-9-9-9-9-9-10-10-10-10-10-10-5-5-5-10-9-9-7|
D-7-7-7-9-9-9-9-9-9-10-10-10-10-10-10-5-5-5-10-9-9-7|
A-5-5-5-7-7-7-7-7-7--8--8--8--8--8--8-3-3-3--8-7-7-5|
E---X---X-X-X---X----X--X--X-----X------------------|
Tap to rate this tab
# A B C D E F G H I J K L M N O P Q R S T U V W X Y Z