Pennywise - Faith Hope tab

-----------------------------------------------------------------------------
			     Pennywise - Faith & Hope
-----------------------------------------------------------------------------
Tabbed by:Jaythepunk
Email:theevolutionofmann@hotmail.com

Tuning:Standard
Intro/verse
e|--------------------------------------------------------------------------|
B|--------------------------------------------------------------------------|
G|--7-----7---10-9-10--7----------------------------------------------------|
D|--7-8-5-7-8-10-9-10--7-8-5-3-7--------------------------------------------|X2
A|--5-8-5-5-8-8--7-8---5-8-5-3-7--------------------------------------------|
E|----6-3---6------------6-3-1-5--------------------------------------------|

Chorus
e|--------------------------------------------------------------------------|
B|--------------------------------------------------------------------------|
G|--7-10-----7-5------------------------------------------------------------|
D|--7-10-8-3-7-5-3-8------------------------------------------------------|x2
A|--5-8--8-3-5-3-3-8--------------------------------------------------------|
E|-------6-1-----1-6--------------------------------------------------------|

Post Chorus
e|-------------|
B|-------------|
G|-------------|
D|--7----------|
A|--7----------|
E|--5----------|

Bridge
e|--------------------------------------------------------------------------|
B|--------------------------------------------------------------------------|
G|-7-5-7-10-12--7-5-7-10----7-5-7-10-12-10----------------------------------|
D|-7-5-7-10-12--7-5-7-10-10-7-5-7-10-12-10-10-------------------------------|
A|-5-3-5-8--10--5-3-5-8--10-5-3-5-8--10-8--10-------------------------------|
E|-----------------------8-----------------8--------------------------------|


this is your own reality....

e|--------------------------------------------------------------------------|
B|--------------------------------------------------------------------------|
G|-10----7-5-7-7-5-7--10----7-5-7-7-5-7-------------------------------------|
D|-10-10-7-5-7-7-5-7--10-10-7-5-7-7-5-7-------------------------------------|
A|-8--10-5-3-5-5-3-5--8--10-5-3-5-5-3-5-------------------------------------|
E|----8------------------8--------------------------------------------------|

kind of hope for society...
e|--------------------------------------------------------------------------|
B|--------------------------------------------------------------------------|
G|-10----7--10------5-------------------------------------------------------|
D|-10-10-7--10-10-7-5-------------------------------------------------------|
A|-8--10-5--8--10-7-3-------------------------------------------------------|
E|----8--------8--5---------------------------------------------------------|

Key
| /  slide up
| \  slide down
| h  hammer-on
| p  pull-off
| ~  vibrato
| +  harmonic
| x  Mute note
| ^  Palm mute
| *  Let ring 
=============================================================================
Tap to rate this tab
 
# A B C D E F G H I J K L M N O P Q R S T U V W X Y Z