Song name
# A B C D E F G H I J K L M N O P Q R S T U V W X Y Z

Pennywise - Something To Change tab

pennywise
something to change
-solo- (for the rest look at my from the ashes album tab...)

starts at 1:43
e|---------------------------------------|
B|---------------------------------------|
G|---------------------------------------|
D|-----------------4-5-------------------|
A|-5-7-5-7-5-5-7-5-----5-7-5-7-5-2-3-2---|
E|-------------------------------------3-|

e|------------------------------------------------------|
B|------------------------------------------------------|
G|------------------------------------------------------|
D|-----------4-5-4-5-4-5~-4-5-7-5-4-5-55555555-44444444-|
A|-5-7-5-7-5--------------------------------------------|
E|------------------------------------------------------|


e|-------------------------------------------------------|
B|-------------------------------------------------------|
G|-------------------44-4-55-5-77-7-99-9-----------------|
D|-55555555-22222222-xx-x-xx-x-xx-x-xx-x-5-4-5-7-5-4-2---|
A|-------------------22-2-33-3-55-5-77-7---------------5-|
E|-------------------------------------------------------| ends at 2:05

thats it...maybe not 100% but it sounds good...
i did this tab because somebody asked so enjoY
pleaZ rate and post me mistakes,suggestions at el_diablo7th@freenet.de
Tap to rate this tab
# A B C D E F G H I J K L M N O P Q R S T U V W X Y Z