Song name
# A B C D E F G H I J K L M N O P Q R S T U V W X Y Z

Pennywise - Fight It tab

Artist:Pennywise
Song:  Fight It
Album: Punk O Rama Vol.4
Tabbed By: Daniel Brennan aka kinetik silence

Tunning: Standard - E,A,D,G,B,E


< - Slide down
* - Palm mute
\ - Slide to


Intro
                 Guitar 1
e|------------------------------------------|
b|------------------------------------------|
g|--77-7-7-7-10-9-7-77--55-5-10-9-77-7-7-7--| X 2
D|--77-7-7-7-10-9-7-77--55-5-10-9-77-7-7-7--|
A|--55-5-5-5-8--7-5-55--33-3-8--7-55-5-5-5--|
E|------------------------------------------|

                 Guitar 2
e|------------------------------------------|
b|------------------------------------------|
g|--77-7-7-7-10-9-7-77--55-5-10-9-7-9-10-12-|
D|--77-7-7-7-10-9-7-77--55-5-10-9-----------|
A|--55-5-5-5-8--7-5-55--33-3-8--7-5-7-8--10-|
E|------------------------------------------|





               Something’s gone wrong today
               What are we fighting for?

e|----------------------------------------------------------|
b|----------------------------------------------------------|
g|--7----------------10-9-7-77--5----------------10-9-7-77--| 
D|--7----------------10-9-7-77--5----------------10-9-7-77--|
A|--5-55555555555555-8--7-5-55--3-33333333333333-8--7-5-55--|
E|----------------------------------------------------------|
      **************              **************



               There’s got to be something better
               So finally we’ll find a way

e|------------------------------------------------------|
b|------------------------------------------------------|
g|--7----------------10-9-7-77--55-5-10-9-9-77-7-7-7-7--| 
D|--7----------------10-9-7-77--55-5-10-9-9-77-7-7-7-7--|
A|--5-55555555555555-8--7-5-55--33-3-8--7-7-55-5-5-5-5--|
E|------------------------------------------------------|
      **************              



We’ve got to fight it, today
We’ve got to fight it, it won’t go away
We’ve got to fight it, today

e|---------------------------|
b|---------------------------|
g|-------10--5\7-77-7-7-7-7--| X 3
D|--88-8-10--5\7-77-7-7-7-7--|
A|--88-8-8---3\5-55-5-5-5-5--|
E|--66-6---------------------|


What are you fightin’ for? Just make some noise, go away

e|-------------------------------|
b|-------------------------------|
g|-------------------------------|
D|--5-------------7--------------|
A|--5-5-5-5-5-5-5-7-7-7-7-7-7-7--|
E|--3-3-3-3-3-3-3-5-5-5-5-5-5-5--|
      * * * * * *   * * * * * *



e|------------------------------------------|
b|------------------------------------------|
g|--77-7-7-7-10-9-7-77--55-5-10-9-77-7-7-7--|
D|--77-7-7-7-10-9-7-77--55-5-10-9-77-7-7-7--|
A|--55-5-5-5-8--7-5-55--33-3-8--7-55-5-5-5--|
E|------------------------------------------|




              We still have a chance today
              What are you waitin’ for?

e|----------------------------------------------------------|
b|----------------------------------------------------------|
g|--7----------------10-9-7-77--5----------------10-9-7-77--| 
D|--7----------------10-9-7-77--5----------------10-9-7-77--|
A|--5-55555555555555-8--7-5-55--3-33333333333333-8--7-5-55--|
E|----------------------------------------------------------|
      **************              **************



             We know we can’t make it better
             So united we’ll find a way

e|------------------------------------------------------|
b|------------------------------------------------------|
g|--7----------------10-9-7-77--55-5-10-9-9-77-7-7-7-7--| 
D|--7----------------10-9-7-77--55-5-10-9-9-77-7-7-7-7--|
A|--5-55555555555555-8--7-5-55--33-3-8--7-7-55-5-5-5-5--|
E|------------------------------------------------------|
      **************              



We’ve got to fight it, today
We’ve got to fight it, it won’t go away
We’ve got to fight it, today

e|---------------------------|
b|---------------------------|
g|-------10--5\7-77-7-7-7-7--| X 3
D|--88-8-10--5\7-77-7-7-7-7--|
A|--88-8-8---3\5-55-5-5-5-5--|
E|--66-6---------------------|


What are you fightin’ for? Just make some noise Whoa

e|-------------------------------|
b|-------------------------------|
g|-------------------------------|
D|--5-------------7--------------|
A|--5-5-5-5-5-5-5-7-7-7-7-7-7-7--|
E|--3-3-3-3-3-3-3-5-5-5-5-5-5-5--|
      * * * * * *   * * * * * *


   Whoa Yeah, find something better, won’t waste your time Whoa
   
e|----------------------------------------------------------|
b|----------------------------------------------------------|
g|--7-7--7-7-7--7-5-5--5-5-5--5-----------------------------|
D|--7-7--7-7-7--7-5-5--5-5-5--5-5-5--5-5-5--5-3-3--3-3-3-3--|
A|--5-5--5-5-5--5-3-3--3-3-3--3-5-5--5-5-5--5-3-3--3-3-3-3--|
E|------------------------------3-3--3-3-3--3-1-1--1-1-1-1--|


  Whoa yeah, seeing them cry out, won’t change your mind Whoa

e|--------------------------------------------------------|
b|--------------------------------------------------------|
g|--7-7--7-7-7--7-5-5--5-5-5--5----------------------5----|
D|--7-7--7-7-7--7-5-5--5-5-5--5-5-5--5-5-5--5-3-3--3-5-5--|
A|--5-5--5-5-5--5-3-3--3-3-3--3-5-5--5-5-5--5-3-3--3-3-5--|
E|------------------------------3-3--3-3-3--3-1-1--1---3--|


Whoa yeah, we know you want something better Whoa

e|----------------------------------------------------------|
b|----------------------------------------------------------|
g|--7-7--7-7-7--7-5-5--5-5-5--5-----------------------------|
D|--7-7--7-7-7--7-5-5--5-5-5--5-5-5--5-5-5--5-3-3--3-3-3-3--|
A|--5-5--5-5-5--5-3-3--3-3-3--3-5-5--5-5-5--5-3-3--3-3-3-3--|
E|------------------------------3-3--3-3-3--3-1-1--1-1-1-1--|



Whoa yeah,

e|----------------------------------|
b|----------------------------------|
g|--7-7--7-7-7--7-5-5--5--5-5-5-5---|
D|--7-7--7-7-7--7-5-5--5--5-5-5-5---|
A|--5-5--5-5-5--5-3-3--3--3-3-3-3---|
E|----------------------------------|
 


    what are you fighting for? 
    It’s got to stop today

e|-------------------------------|
b|-------------------------------|
g|-------------------------------|
D|--5-------------7--------------|
A|--5-5-5-5-5-5-5-7-7-7-7-7-7-7--|
E|--3-3-3-3-3-3-3-5-5-5-5-5-5-5--|
      * * * * * *   * * * * * *




e|------------------------------------------|
b|------------------------------------------|
g|--77-7-7-7-10-9-7-77--55-5-10-9-77-7-7-7--|
D|--77-7-7-7-10-9-7-77--55-5-10-9-77-7-7-7--|
A|--55-5-5-5-8--7-5-55--33-3-8--7-55-5-5-5--|
E|------------------------------------------|




    Solo

e|-------------------------------------------------------------------------------------------|
b|--11-11------------------------------------------------------------------------------------|
g|--14-14--14-13-12----12-12--10-12-10---------14--12-10-13--12-10--12-10----10--------------|
D|------------------15-----------------12---------------------------------12----10-12-10-12--|
A|-------------------------------------------------------------------------------------------|
E|-------------------------------------------------------------------------------------------|



   Solo Continued

e|-----------------------------------------------------------------------------------------------|
b|------------------------------------------------------------------15----15-15-13-15--15--15--15|
g|----------------7----------------10-9,10,9,10,---9----7-----12\14-14-14-14-14-12---------------|
D|-----------7-10---10-7-10--7-10---------------10---10------------------------------------------|
A|-----8-10--------------------------------------------------------------------------------------|
E|8-10-------------------------------------------------------------------------------------------|



We’ve got to fight it, today
We’ve got to fight it, it won’t go away
We’ve got to fight it, today

e|---------------------------|
b|---------------------------|
g|-------10--5\7-77-7-7-7-7--| X 3
D|--88-8-10--5\7-77-7-7-7-7--|
A|--88-8-8---3\5-55-5-5-5-5--|
E|--66-6---------------------|


What are you fightin’ for? Just make some noise Whoa

e|-------------------------------|
b|-------------------------------|
g|-------------------------------|
D|--5-------------7--------------|
A|--5-5-5-5-5-5-5-7-7-7-7-7-7-7--|
E|--3-3-3-3-3-3-3-5-5-5-5-5-5-5--|
      * * * * * *   * * * * * *


   Whoa Yeah, find something better, won’t waste your time Whoa
   
e|----------------------------------------------------------|
b|----------------------------------------------------------|
g|--7-7--7-7-7--7-5-5--5-5-5--5-----------------------------|
D|--7-7--7-7-7--7-5-5--5-5-5--5-5-5--5-5-5--5-3-3--3-3-3-3--|
A|--5-5--5-5-5--5-3-3--3-3-3--3-5-5--5-5-5--5-3-3--3-3-3-3--|
E|------------------------------3-3--3-3-3--3-1-1--1-1-1-1--|


  Whoa yeah, seeing them cry out, won’t change your mind Whoa

e|--------------------------------------------------------|
b|--------------------------------------------------------|
g|--7-7--7-7-7--7-5-5--5-5-5--5----------------------5----|
D|--7-7--7-7-7--7-5-5--5-5-5--5-5-5--5-5-5--5-3-3--3-5-5--|
A|--5-5--5-5-5--5-3-3--3-3-3--3-5-5--5-5-5--5-3-3--3-3-5--|
E|------------------------------3-3--3-3-3--3-1-1--1---3--|


Whoa yeah, we know you want something better Whoa

e|----------------------------------------------------------|
b|----------------------------------------------------------|
g|--7-7--7-7-7--7-5-5--5-5-5--5-----------------------------|
D|--7-7--7-7-7--7-5-5--5-5-5--5-5-5--5-5-5--5-3-3--3-3-3-3--|
A|--5-5--5-5-5--5-3-3--3-3-3--3-5-5--5-5-5--5-3-3--3-3-3-3--|
E|------------------------------3-3--3-3-3--3-1-1--1-1-1-1--|



Whoa yeah,

e|----------------------------------|
b|----------------------------------|
g|--7-7--7-7-7--7-5-5--5--5-5-5-5---|
D|--7-7--7-7-7--7-5-5--5--5-5-5-5---|
A|--5-5--5-5-5--5-3-3--3--3-3-3-3---|
E|----------------------------------|


 
    what are you fighting for? 
    It’s got to stop today

e|-------------------------------|
b|-------------------------------|
g|-------------------------------|
D|--5-------------7--------------|
A|--5-5-5-5-5-5-5-7-7-7-7-7-7-7--|
E|--3-3-3-3-3-3-3-5-5-5-5-5-5-5--|
      * * * * * *   * * * * * *


        We got to fight it, today!

e|------------------------------------------|
b|------------------------------------------|
g|--77-7-7-7-10-9-7-77--55-5-10-9-77-7-7-7--|
D|--77-7-7-7-10-9-7-77--55-5-10-9-77-7-7-7--|
A|--55-5-5-5-8--7-5-55--33-3-8--7-55-5-5-5--|
E|------------------------------------------|
Tap to rate this tab
 
# A B C D E F G H I J K L M N O P Q R S T U V W X Y Z