Song name
# A B C D E F G H I J K L M N O P Q R S T U V W X Y Z

Pennywise - Something Wrong With Me tab

Song name:Something wrong with me
Album:Land of The Free?
Lyrics By: Jim Lindberg
Music By : Pennywise
Tab By: Santiago

Intro:
Play 4 times
E|----------------------|
B|----------------------|
G|-----5-----7----------|
D|--3--5--5--7--7-7-7-7-|
A|--3--3--5--5--7-7-7-7-|
E|--1-----3-----5-5-5-5-|

1ST VERSE:Play twice
note:the palm mute(.)its quick and hard
E|-------------------------------------------------------------------------|
B|-------------------------------------------------------------------------|
G|-------------------5---------------------------------7-------------------|
D|-7-----------------5-5-5-5-5-5-5-5-5-5---------------7-7-7-7-7-7-7-7-7---|
A|-7-7-7-7-7-7-7-7-7-3-3-3-3-3-3-3-3-3-5-5-5-5-5-5-5-5-5-5-5-5-5-5-5-5-5---|
E|-5-5-5-5-5-5-5-5-5-------------------3-3-3-3-3-3-3-3---------------------|
     . . . . . . . .   . . . . . . . .  . . . . . . .    . . . . . . . .

2nd part of verse:Twice
I was once just like you
Pickslide before this
E|-------------------------------------------------------------------------|
B|-------------------------------------------------------------------------|
G|-----------------5-5-5-5-5-5-5-5-----------------7-7-7-7-7-7-7-7---------|
D|-7-7-7-7-7-7-7-7-5-5-5-5-5-5-5-5-5-5-5-5-5-5-5-5-7-7-7-7-7-7-7-7---------|
A|-7-7-7-7-7-7-7-7-3-3-3-3-3-3-3-3-5-5-5-5-5-5-5-5-5-5-5-5-5-5-5-5---------|
E|-5-5-5-5-5-5-5-5-----------------3-3-3-3-3-3-3-3-------------------------|


Chorus:Twice

They are not to proud of me...
E|----------------------|
B|----------------------|
G|-----5-----7----------|
D|--3--5--5--7--7-7-7-7-|
A|--3--3--5--5--7-7-7-7-|
E|--1-----3-----5-5-5-5-|

Outro:
E|----------------------------------------------------|
B|----------------------------------------------------|
G|----------------------------------------------------|
D|-3-----------------5-----------------8-8-8-8-8-8-8-8|
A|-3-3-3-3-3-3-3-3-3-5-5-5-5-5-5-5-5-5-6-6-6-6-6-6-6-6|
E|-1-1-1-1-1-1-1-1-1-3-3-3-3-3-3-3-3-3----------------|
     . . . . . . . .   . . . . . . . . 
pickslide after that

2nd Verse:play twice
note:the palm mute(.)its quick and hard
E|-------------------------------------------------------------------------|
B|-------------------------------------------------------------------------|
G|-------------------5---------------------------------7-------------------|
D|-7-----------------5-5-5-5-5-5-5-5-5-5---------------7-7-7-7-7-7-7-7-7---|
A|-7-7-7-7-7-7-7-7-7-3-3-3-3-3-3-3-3-3-5-5-5-5-5-5-5-5-5-5-5-5-5-5-5-5-5---|
E|-5-5-5-5-5-5-5-5-5-------------------3-3-3-3-3-3-3-3---------------------|
     . . . . . . . .   . . . . . . . .  . . . . . . .    . . . . . . . .
Pickslide after tht

2nd part of 2nd verse:Play twice
you don't like my tatoos...
Pickslide before this
E|-------------------------------------------------------------------------|
B|-------------------------------------------------------------------------|
G|-----------------5-5-5-5-5-5-5-5-----------------7-7-7-7-7-7-7-7---------|
D|-7-7-7-7-7-7-7-7-5-5-5-5-5-5-5-5-5-5-5-5-5-5-5-5-7-7-7-7-7-7-7-7---------|
A|-7-7-7-7-7-7-7-7-3-3-3-3-3-3-3-3-5-5-5-5-5-5-5-5-5-5-5-5-5-5-5-5---------|
E|-5-5-5-5-5-5-5-5-----------------3-3-3-3-3-3-3-3-------------------------|


Chorus:Twice

They are not to proud of me...
E|----------------------|
B|----------------------|
G|-----5-----7----------|
D|--3--5--5--7--7-7-7-7-|
A|--3--3--5--5--7-7-7-7-|
E|--1-----3-----5-5-5-5-|

Outro:
E|----------------------------------------------------|
B|----------------------------------------------------|
G|----------------------------------------------------|
D|-3-----------------5-----------------8-8-8-8-8-8-8-8|
A|-3-3-3-3-3-3-3-3-3-5-5-5-5-5-5-5-5-5-6-6-6-6-6-6-6-6|
E|-1-1-1-1-1-1-1-1-1-3-3-3-3-3-3-3-3-3----------------|
     . . . . . . . .   . . . . . . . . 
pickslide after that


3rd verse:TWICE
E|-------------------------------------------------------------------------|
B|-------------------------------------------------------------------------|
G|-----------------5-5-5-5-5-5-5-5-----------------7-7-7-7-7-7-7-7---------|
D|-7-7-7-7-7-7-7-7-5-5-5-5-5-5-5-5-5-5-5-5-5-5-5-5-7-7-7-7-7-7-7-7---------|
A|-7-7-7-7-7-7-7-7-3-3-3-3-3-3-3-3-5-5-5-5-5-5-5-5-5-5-5-5-5-5-5-5---------|
E|-5-5-5-5-5-5-5-5-----------------3-3-3-3-3-3-3-3-------------------------|

Twice
E|----------------------|
B|----------------------|
G|-----5-----7----------|
D|--3--5--5--7--7-7-7-7-|
A|--3--3--5--5--7-7-7-7-|
E|--1-----3-----5-5-5-5-|

E|----------------------------------------------------|
B|----------------------------------------------------|
G|----------------------------------------------------|
D|-3-----------------5-----------------8-8-8-8-8-8-8-8|
A|-3-3-3-3-3-3-3-3-3-5-5-5-5-5-5-5-5-5-6-6-6-6-6-6-6-6|
E|-1-1-1-1-1-1-1-1-1-3-3-3-3-3-3-3-3-3----------------|
     . . . . . . . .   . . . . . . . . 
E|-------------------------------------------------------------------------|
B|-------------------------------------------------------------------------|
G|-----------------5-5-5-5-5-5-5-5-----------------7-7-7-7-7-7-7-7---------|
D|-7-7-7-7-7-7-7-7-5-5-5-5-5-5-5-5-5-5-5-5-5-5-5-5-7-7-7-7-7-7-7-7---------|
A|-7-7-7-7-7-7-7-7-3-3-3-3-3-3-3-3-5-5-5-5-5-5-5-5-5-5-5-5-5-5-5-5---------|
E|-5-5-5-5-5-5-5-5-----------------3-3-3-3-3-3-3-3-------------------------|
   . . . . . . . . . . . .  .  . . . . . . . . . . . . . . . . . .

Pickslide
  Then The solo comes here but i dont have it



Tap to rate this tab
 
# A B C D E F G H I J K L M N O P Q R S T U V W X Y Z