Song name
# A B C D E F G H I J K L M N O P Q R S T U V W X Y Z

Pennywise - 30 Seconds Till The End Of The World tab

Song: 30 Seconds Till The End Of The World
Band: Pennywise
Album: Short Songs For Short People
Written and Performed By: Pennywise
Tabbed By: ultimatelefty

This is a fun one to play, and it's another great short song!
Hopefully it's correct, please rate, comment, and enjoy!


  Intro:
e|-----------------------------------|
B|-----------------------------------|
G|-----5555--------7-7777-7-5-5555-5-|
D|-22225555555555557-7777-7-5-5555-5-|
A|-22223333555555555-5555-5-3-3333-3-|
E|-0000----33333333------------------|x2(Second time a there is a pickslide
PM ................  ....     ....       through the second half of this riff)


  "30 Seconds..."
e|----------------------------------|
B|----------------------------------|
G|-----5555--------7777777755555555-|
D|-22225555555555557777777755555555-|
A|-22223333555555555555555533333333-|
E|-0000----33333333-----------------|x4

  "10 Seconds..."
e|--------------|
B|--------------|
G|-----5-----7--|
D|--2--5--5--7--|
A|--2--3--5--5--|
E|--0-----3-----|

  "5 Seconds..."
e|------------------|
B|------------------|
G|-----5----------3-|
D|--2--5--5-5-5-5-4-|
A|--2--3--5-5-5-5-4-|
E|--0-----3-3-3-3-2-|

****************************
PM .: Palm Mute
****************************
Tap to rate this tab
 
# A B C D E F G H I J K L M N O P Q R S T U V W X Y Z