Song name
# A B C D E F G H I J K L M N O P Q R S T U V W X Y Z

Pennywise - Die For You tab

-------------------------------------------------------------------------------
                             SONG NAME Die For You - Band Name Pennywise
-------------------------------------------------------------------------------
Tabbed by:Peter Solomons
Email:Peter.Solomons@hotmail.co.uk

Tuning:Standard
Please note that my tab does not have the solo in it.
Please Rate my Tab: For better or for worse.

e|--------------------------------------------------------|
B|--------------------------------------------------------|
G|--------------------------------------------------------|
D|-2-2-2-2-2-2-2-2-0-0-0-0-2-2-0-0-2-2-2-2-2-2-2-2-3-2-0-2| 1x
A|-3-3-3-3-3-3-3-3-5-5-5-5-3-3-5-5-0-0-0-0-0-0-0-0--------|
E|--------------------------------------------------------|

e|----------------------------------------------hold your finger|
B|----------------------------------------------over the string-|
G|----------------------------------------------last bit only---|
D|-2-2-2-2-2-2-2-2-0-0-0-0-2-2-0-0-2-2-2-2-2-2-2-2-7---7-5-7---7| 1x
A|-3-3-3-3-3-3-3-3-5-5-5-5-3-3-5-5-0-0-0-0-0-0-0-0---7-------7--|
E|--------------------------------------------------------------|

e|----------------------------------------------------------------|
B|----------------------------------------------------------------|
G|-5-5-5-5-5-5-5-5-5-5-5-5-5-7-7-7---------------------------7-7-7|
D|-5-5-5-5-5-5-5-5-5-5-5-5-5-7-7-7-7-7-7-7-7-7-7-7-7-7-7-7-7-7-7-7| 4x
A|-3-3-3-3-3-3-3-3-3-3-3-3-3-5-5-5-7-7-7-7-7-7-7-7-7-7-7-7-7-5-5-5|
E|---------------------------------5-5-5-5-5-5-5-5-5-5-5-5-5------|

e|--------------------------------|
B|--------------------------------|
G|-5-5-5-5------------------------|
D|-5-5-5-5-5-5-5-5-7-7-7-7-7-7-7-7| 3x
A|-3-3-3-3-5-5-5-5-7-7-7-7-7-7-7-7|
E|-------- 3-3-3-3-5-5-5-5-5-5-5-5|

e|----------------|
B|----------------|
G|----------------|
D|-3-3-3-3-3-3-3-5| 1x
A|-3-3-3-3-3-3-3-5|
E|-1-1-1-1-1-1-1-3|

e|----------------------------------------------------------------|
B|----------------------------------------------------------------|
G|---------------------------------5-5-5-5-5-5-5-5-------------7-7|
D|-7-7-7-7-7-7-7-7-7-7-7-7-7-7-7-7-5-5-5-5-5-5-5-5-5-5-5-5-5-5-7-7| 3x
A|-7-7-7-7-7-7-7-7-7-7-7-7-7-7-7-7-3-3-3-3-3-3-3-3-5-5-5-5-5-5-5-5|
E|-5-5-5-5-5-5-5-5-5-5-5-5-5-5-5-5-----------------3-3-3-3-3-3----|

e|----------------------------------------------------------------|
B|----------------------------------------------------------------|
G|---------------------------------5-5-5-5-5-5-5-5----------------|
D|-7-7-7-7-7-7-7-7-7-7-7-7-7-7-7-7-5-5-5-5-5-5-5-5-5-5-5-5-5-5-5-5| 1x
A|-7-7-7-7-7-7-7-7-7-7-7-7-7-7-7-7-3-3-3-3-3-3-3-3-5-5-5-5-5-5-5-5|
E|-5-5-5-5-5-5-5-5-5-5-5-5-5-5-5-5-----------------3-3-3-3-3-3-3-3|
E|-1-1-1-1-1-1-1-3------------------------------------------------|
Tap to rate this tab
# A B C D E F G H I J K L M N O P Q R S T U V W X Y Z