Song name
# A B C D E F G H I J K L M N O P Q R S T U V W X Y Z

Pennywise - Land Down Under tab

Song: Land Down Under
Cover Artist: Pennywise
Original Artist: Men At Work

Tabbed by: Punkman95

Tuning: Standard 

x = Mute
. = Palm Mute  
~ = Let Ring
/ = Slide Up
\ = Slide Down 
^ = Bend Note



Intro 
e|-----------------------------------|
B|-----------------------------------|
G|-5-5-5-55----------0-0-0-----------|
D|-5-5-5-55-5-5-5-55-0-0-0-00-3-33-5-| 
A|-3-3-3-33-5-5-5-55-2-2-2-22-3-33-5-|
E|----------3-3-3-33----------1-11-3-|

e|-------------------------------------| 
B|-------------------------------------| for the x's lightly rest your   
G|-5-5-5-55----------0-0-0-------------| fingers across the first three frets
D|-5-5-5-55-5-5-5-55-0-0-0-00-3-xxxxx--| to mute the strings, it sounds  
A|-3-3-3-33-5-5-5-55-2-2-2-22-3-xxxxx--| similar to palm muting but it's 
E|----------3-3-3-33----------1-xxxxx--| a distinct sound I can only get 
                                         by doing it this way 
e|------------------------------------|
B|------------------------------------|
G|-5-5-5-55----------0-0-0------------|
D|-5-5-5-55-5-5-5-55-0-0-0--20-3-33-5-| 
A|-3-3-3-33-5-5-5-55-2-2-2--22-3-33-5-|
E|----------3-3-3-33-----------1-11-3-|

e|---------------------|-----------------------------|
B|---------------------|-----------------------------|
G|-5-5-5-55----------0-|-----------------------------|
D|-5-5-5-55-5-5-5-55-0-|And then do a pick slide from| Or the 22nd depending 
A|-3-3-3-33-5-5-5-55-2-|right above the bridge pickup| on how many frets your
E|----------3-3-3-33---|to the 24th fret on "E" & "A"| guitar has 



Verse 1 
e|------------------------------------|
B|------------------------------------|
G|------------------------------------|
D|-7-7-7-77-5-5-5-55-7-7-7-77-3-3-5-5-|
A|-7-7-7-77-5-5-5-55-7-7-7-77-3-3-5-5-|
E|-5-5-5-55-3-3-3-33-5-5-5-55-1-1-3-3-|
   . . . .. . . . .. . . . ..        
                  
e|-----------------------------|
B|-----------------------------|
G|-----------------------------|
D|-7-7-7-77-5-5-5-55-7-7-777-3-|
A|-7-7-7-77-5-5-5-55-7-7-777-3-|
E|-5-5-5-55-3-3-3-33-5-5-555-1-|
   . . . .. . . . .. 



Chorus  
e|--------------------------------|
B|--------------------------------|
G|-5-5-555---------2-2-222--------|
D|-5-5-555-5-5-555-2-2-222-3-33-5-|
A|-3-3-333-5-5-555-0-0-000-3-33-5-|
E|---------3-3-333---------1-11-3-|




Post Chorus 
e|-----------------------------------|
B|-----------------------------------|
G|-5-5-5-55----------0-0-0-----------|
D|-5-5-5-55-5-5-5-55-0-0-0-00-3-33-5-| 
A|-3-3-3-33-5-5-5-55-2-2-2-22-3-33-5-|
E|----------3-3-3-33----------1-11-3-|




Post chorus phase 2 
e|---------------------|-----------------------------|
B|---------------------|-----------------------------|
G|-5-5-5-55----------0-|-----------------------------|
D|-5-5-5-55-5-5-5-55-0-|                             |
A|-3-3-3-33-5-5-5-55-2-| And do the pick slide again |
E|----------3-3-3-33---|                             |




Verse 2
e|------------------------------------|
B|------------------------------------|
G|------------------------------------|
D|-7-7-7-77-5-5-5-55-7-7-7-77-3-3-5-5-|
A|-7-7-7-77-5-5-5-55-7-7-7-77-3-3-5-5-|
E|-5-5-5-55-3-3-3-33-5-5-5-55-1-1-3-3-|
   . . . .. . . . .. . . . ..        
                  
e|-----------------------------|
B|-----------------------------|
G|-----------------------------|
D|-7-7-7-77-5-5-5-55-7-7-777-3-|
A|-7-7-7-77-5-5-5-55-7-7-777-3-|
E|-5-5-5-55-3-3-3-33-5-5-555-1-|
   . . . .. . . . .. 



Chorus
e|--------------------------------|
B|--------------------------------|
G|-5-5-555---------2-2-222--------|
D|-5-5-555-5-5-555-2-2-222-3-33-5-| x3
A|-3-3-333-5-5-555-0-0-000-3-33-5-|
E|---------3-3-333---------1-11-3-|




Post chorus
e|-----------------------------------|
B|-----------------------------------|
G|-5-5-5-55----------0-0-0-----------|
D|-5-5-5-55-5-5-5-55-0-0-0-00-3-33-5-| x2
A|-3-3-3-33-5-5-5-55-2-2-2-22-3-33-5-|
E|----------3-3-3-33----------1-11-3-|




Solo   (Guitar 2 plays chorus as rhythm)           
e|--------------------|------------------|
B|--------------------|------------------|
G|-/5-5-4--4-4-5-4----|-/5-5-4--5-4------|
D|-----------------7~-|-------------5----|
A|--------------------|---------------7~-|
E|--------------------|------------------|

e|---------------------|
B|---------------------|
G|-/5-5-4--4-4/9--9-9~-|
D|---------------------|
A|---------------------|
E|---------------------|

e|-12-10-9-10-9-7-9-7-5-7-5-4-5-4-2-4-2-0-------------------|
B|----------------------------------------7-5-4-5-4-2-4-2-0-|
G|----------------------------------------------------------|
D|----------------------------------------------------------|
A|----------------------------------------------------------|
E|----------------------------------------------------------|

 (Play post chorus phase 2 and post chorus 
 (in that order) as rhythm for this part )
e|-/8~---7~----------------------------|
B|------------10~----/8~---12~----9^^\-|
G|-------------------------------------|
D|-------------------------------------|   Quickly bend "9" downward twice    
A|-------------------------------------|   and slide back down the neck 
E|-------------------------------------|   (towards the head of the guitar)




 Verse 3
e|------------------------------------|
B|------------------------------------|
G|------------------------------------|
D|-7-7-7-77-5-5-5-55-7-7-7-77-3-3-5-5-| x3
A|-7-7-7-77-5-5-5-55-7-7-7-77-3-3-5-5-|
E|-5-5-5-55-3-3-3-33-5-5-5-55-1-1-3-3-|
   . . . .. . . . .. . . . ..        
                  
e|-----------------------------|
B|-----------------------------|
G|-----------------------------|
D|-7-7-7-77-5-5-5-55-7-7-777-3-|
A|-7-7-7-77-5-5-5-55-7-7-777-3-|
E|-5-5-5-55-3-3-3-33-5-5-555-1-|
   . . . .. . . . .. 



 Chorus
e|--------------------------------|
B|--------------------------------|
G|-5-5-555---------2-2-222--------|
D|-5-5-555-5-5-555-2-2-222-3-33-5-| x3
A|-3-3-333-5-5-555-0-0-000-3-33-5-|
E|---------3-3-333---------1-11-3-|




 Post chorus
e|-----------------------------------|
B|-----------------------------------|
G|-5-5-5-55----------0-0-0-----------|
D|-5-5-5-55-5-5-5-55-0-0-0-00-3-33-5-| x3
A|-3-3-3-33-5-5-5-55-2-2-2-22-3-33-5-|
E|----------3-3-3-33----------1-11-3-|




 Outro
e|------------------------------| 
B|------------------------------| 
G|-5~--------22222222222222222~-| 
D|-5~---5~---22222222222222222~-|  
A|-3~---5~---00000000000000000~-| 
E|------3~----------------------| 


 End on 
e|-------|
B|-------|
G|---2~--|
D|---2~--|
A|---0~--|
E|-------|




This is my very first tab so any advice or constructive criticism would be welcome. 
I'm very sure that this tab is accurate although I'm not 100% sure about 
the accuracy of the solo but I know it is at least very very close.
 I hope you've found this tab helpful. Please rate and comment :D  
Tap to rate this tab
# A B C D E F G H I J K L M N O P Q R S T U V W X Y Z