Song name
# A B C D E F G H I J K L M N O P Q R S T U V W X Y Z

Pennywise - Its What You Do With It tab

From: Rambozo 
Subject: ITS WHAT YOU DO WITH IT by PENNYWISE

Geez after months of abusing this nevada thing and downloading file after 
file after file with no files in return, i think i've made up for it with 
the amount i've sent to it in the last three months or so.... 

                      It's What You Do With It

e-|------------------------------------------
B-|------------------------------------------
G-|-5-5-5-4-------------5-5-5-4--------------
D-|-5-5-5-4-5-7-7-7-7-7-5-5-5-4-5-7-7-7-7-7--
A-|-3-3-3-2-5-7-7-7-7-7-3-3-3-2-5-7-7-7-7-7--
E-|---------3-5-5-5-5-5---------3-5-5-5-5-5--
too much time in the same place...etc

e-|---------------------------------------------------------------------------
B-|---------------------------------------------------------------------------
G-|-5-5-5-4-------------5-5-5-4-------------5-5-5-4---------------------------
D-|-5-5-5-4-5-7-7-7-7-7-5-5-5-4-5-7-7-7-7-7-5-5-5-4-5-7-7-7-7-7-5-5-5-5-5-5-5-
A-|-3-3-3-2-5-7-7-7-7-7-3-3-3-2-5-7-7-7-7-7-3-3-3-2-5-7-7-7-7-7-5-5-5-5-5-5-5-
E-|---------3-5-5-5-5-5---------3-5-5-5-5-5---------3-5-5-5-5-5-3-3-3-3-3-3-3-
its what you do with it...etc

e-|---------------------------------------------------------|
B-|---------------------------------------------------------|
G-|---------5-5-5-5-------------------------5-5-5-5---------|
D-|-7-7-7-7-5-5-5-5-7-7-7-7-3-3-3-3-7-7-7-7-5-5-5-5-5-5-5-5-|
A-|-7-7-7-7-3-3-3-3-7-7-7-7-3-3-3-3-7-7-7-7-3-3-3-3-5-5-5-5-|
E-|-5-5-5-5---------5-5-5-5-1-1-1-1-5-5-5-5---------3-3-3-3-|
i know i gotta listen to my mind...etc

e-|-------------------------|
B-|-------------------------|
G-|-5-5-5-5-----------------|
D-|-5-5-5-5-5-5-5-5-7-7-7-7-|
A-|-3-3-3-3-5-5-5-5-7-7-7-7-|
E-|---------3-3-3-3-5-5-5-5-|
get away...etc

uhmm...thats basically it...

transcribed by rambozo jjm@nucleus.com
Tap to rate this tab
 
# A B C D E F G H I J K L M N O P Q R S T U V W X Y Z