Song name
# A B C D E F G H I J K L M N O P Q R S T U V W X Y Z

Pennywise - Brohymn tab

artist:pennywise
song:brohymn
tabbed by: lee verity
-------------------------|-------------------------|-------------------------|
-------------------------|-------------------------|-------------------------|
--7----7--7--7--7--7--7--|--7--7--7--7--10----9----|--5----5--5--5--5--5--5--|
--7----7--7--7--7--7--7--|--7--7--7--7--10----9----|--5----5--5--5--5--5--5--|
--5----5--5--5--5--5--5--|--5--5--5--5--8-----7----|--3----3--3--3--3--3--3--|
-------------------------|-------------------------|-------------------------|


--------------------------|------------------------------|
--------------------------|------------------------------|
--5--5--5--5--5--5--5--5--|--10----10----10--10--10--10--|
--5--5--5--5--5--5--5--5--|--10----10----10--10--10--10--|
--3--3--3--3--3--3--3--3--|--8-----8-----8---8---8---8---|
--------------------------|------------------------------|


-----------------------|-------------------------|---------------|
-----------------------|-------------------------|---------------|
--5----5----10----9----|--7----7--7--7--7--7--7--|--7--7--7------|
--5----5----10----9----|--7----7--7--7--7--7--7--|--7--7--7------|
--3----3----8-----7----|--5----5--5--5--5--5--5--|--5--5--5------|
-----------------------|-------------------------|---------------|
Tap to rate this tab
# A B C D E F G H I J K L M N O P Q R S T U V W X Y Z