Song name
# A B C D E F G H I J K L M N O P Q R S T U V W X Y Z

Pennywise - God Save The Usa tab

Intro

e|--------------------|
b|--------------------|
G|--------------------|
D|-12-------12--------|
A|-10-------10--------|
E|--------------------|  
    (let ring)
|----------------------------------------|    |---------------------------|
|----------------------------------------|    |---------------------------|
|----------------------------------------|    |---------------------------|
|-----3---5-----8---10-----888-----------|    |----------1212121212121212-| 
|-555-1-3-3-555-6-8-8--555-666-888-101010|    |-55555555-1010101010101010-|
|-333---1---333---6----333-----666--8-8-8| 2x |-33333333------------------|
                                             PM ........
Verse 1                                      (strum fast)

|------------------------------|
|------------------------------|
|------------------------------|
|-------------88888-55555-8-10-|
|-55555-88888-66666-33333-6-8--|
|-33333-66666------------------|2x
  ..... ..... ..... .....                 after 2nd play:
|-------------------------------------|   |------------------|
|-------------------------------------|   |------------------|
|-------------------------------------|   |------------------|
|----------------------------88-1010--|   |-1212121212121212-|
|-55555-88888-10-10-10-10-10-66-8-8---|   |-1010101010101010-|
|-33333-66666-8--8--8--8--8-----------|2x |------------------|

chorus

e|-----------------------------------|
b|-----------------------------------|
G|-----------------------------------|
D|-------888888--------101010101010--|
A|555555-666666-888888-8-8-8-8-8-8---|
G|333333--------666666---------------|2x

|------------------------------------|   |---------------------------|
|------------------------------------|   |---------------------------|
|------------------------------------|   |---------------------------|
|--------------------------8-8-10-10-|   |----------1212121212121212-| 
|-555555-888888-1010101010-6-6-8--8--|   |-55555555-1010101010101010-|
|-333333-666666-8-8-8-8-8------------|2x |-33333333------------------|
                                           ........
interlude
|-------------------------------------|
|-------------------------------------|
|-------------------------------------|
|----------------------------88-10-10-|
|-55555-88888-10-10-10-10-10-66-8--8--|
|-33333-66666-8--8--8--8--8-----------|2x

|-------------------------------------|
|-------------------------------------|
|-------------------------------------|
|-------------------------------8--10-|
|-5------------------3------10--6--8--|
|-3------------------5------8---------|
                                          after 2nd play:
|-------------------------------------|   |------------------|
|-------------------------------------|   |------------------|
|-------------------------------------|   |------------------|
|----------------------------88-10-10-|   |-1212121212121212-|
|-55555-88888-10-10-10-10-10-66-8--8--|   |-1010101010101010-|
|-33333-66666-8--8--8--8--8-----------|2x |------------------|

ending

e|---------------------------------------|
B|---------------------------------------|
G|---------------------------------------|
D|----------------------------888-101010-|
A|-555555-888888-101010101010-666-8-8-8--|
E|-333333-666666-8-8-8-8-8-8-------------|2x

e|------------------------|
B|------------------------|
G|------------------------|
D|----------121212\10/12\-|
A|-55555555-101010\-8/10\-|
E|-33333333---------------|
   ........
  (heavy P.M.)
Tap to rate this tab
# A B C D E F G H I J K L M N O P Q R S T U V W X Y Z