Song name
# A B C D E F G H I J K L M N O P Q R S T U V W X Y Z

Pennywise - Final Day tab

----------------------------------------------------------------------------
			     FINAL DAY - Pennywise
----------------------------------------------------------------------------
Tabbed by: Jesse Benedick
Email: JBMetal311@Yahoo.com

Tuning: Standard

e|-------------------------------------------------------------------------|
B|-------------------------------------------------------------------------|
G|-------------------------------------------------------------------------|
D|-----------------1-1-1----------------------------1-1-1-1-66-55-3--------|
A|-------4-4-4-3-3------------------------4-4-4-3-3---------66-55-3--------|
E|-1-1-1-----------------4-4-4-3-3--1-1-1-------------------44-33-1--------|
 Opening Riff(pm...........................................)
e|-------------------------------------------------------------------------|
B|----------------------------------------------------------99-99----------|
G|----------------------------------------------------------88-88----------|
D|-----------------1-1-1------------------------------------66-66----------|
A|-------4-4-4-3-3------------------------4-4-4-3-3-6-6-6-6----------------|
E|-1-1-1-----------------4-4-4-3-3--1-1-1----------------------------------|
Continued(pm...............................................)
e|-------------------|----------------------------------|
B|-------------------|----------------------------------|
G|----6-5--8---------|-6-------6---10---6----------5----|
D|-3--6-5--8--6-5----|-6---3---6---10---6---3---6--5----|
A|-3--4-3--6--6-5----|-4---3---4---8----4---3---6--3----|
E|-1----------4-3----|-----1----------------1---4-------|
Main Riff Chords      Pre-chorus chords
e|-------------------------------------------------------------------------|
B|-------------------------------------------------------------------------|
G|------5-------5-------5-----6-5------------------------------------------|
D|-3--6-5--3--6-5--3--6-5--6--6-5--3333---3333---3333---6666---3333---3333-|
A|-3--6-3--3--6-3--3--6-3--6--4-3--3333---3333---3333---6666---3333---3333-|
E|-1--4----1--4----1--4----4-------1111---1111---1111---4444---1111---1111-|
Chorus
e|----------------|----------------------------------|
B|----------------|----------------------------------|
G|--3333----------|----------------------------------|
D|--3333---6666---|--3--------66-55--3---------------|
A|--1111---6666---|--3--------66-55--3--------1/8----|
E|---------4444---|--1--------44-33--1---------------|
Chorus continued    Breakdown (pm..)

That's it! Enjoy!

| /  slide up
| \  slide down
| h  hammer-on
| p  pull-off
| ~  vibrato
| +  harmonic
| x  Mute note
============================================================================
Tap to rate this tab
# A B C D E F G H I J K L M N O P Q R S T U V W X Y Z